>
 >
Bwomp 2

Bwomp 2 Guitar Tabs

Mushroomhead - Bwomp 2 chords, tabs, tablatures, lyrics

Guitar lessons | Add/correct | Request | Top 50 tabs Artists:  A B C D E F G H I J K L M N O P Q R S T U V W X Y Z 0-9

Bwomp 2 Guitar Tabs – Mushroomhead

CD, Sheet music, Poster

Do you like Bwomp 2? Share with your friends now
Bass TabsBass Tabs v2TabsTabs v2Tabs v3
Tuning:(B-F#-B-E-G#-C#)

//=Slide
h=Hammer on
..=Palm Mute



   Riff# 1 
   |-(0)////----------|
   |-(0)///-----------|
   |-(0)//------------| 1x
   |-(0)/Volume-Swell-| 
   |------------------|
   |------------------|
   
   Riff# 2
   |----------------------------------------------------|
   |----------------------------------------------------|
   |----------------------------------------------------| 1x
   |-7-5-7-5-7/8-5--7-5-8-6-9--7-5-7-5-7/8-5--7-5-8-6-9-|
   |-7-5-7-5-7/8-5--7-5-8-6-9--7-5-7-5-7/8-5--7-5-8-6-9-|
   |----------------------------------------------------|
   PM. . . . . . .  . . . . .  . . . . . . .  . . . . 

   Riff# 3 
   |----------------------------------|
   |----------------------------------|
   |----------------------------------| 1x
   |----------------------------------|
   |--777777777777777777777777777777--|
   |----------------------------------|

   Riff# 4 
   |-------------------------|
   |-------------------------|
   |-------------------------| 2x
   |-------------------------|
   |--7----10----9----8------|
   |-------------------------|


   Riff# 2 1x 
   Riff# 3 3x 

   Riff# 5 
   |---------------------------------------------------------|
   |---------------------------------------------------------|
   |---------------------------------------------------------| 2x
   |---------------------------------------------------------|
   |-7-5-7-5-7/8-5--7-6-8-5-9--7-5-7-5-7/8-5--7-6-8-5-10-----|
   |---------------------------------------------------------|
                                                        
   Riff# 6 
   |---------------------------------------------------------|
   |---------------------------------------------------------|
   |---------------------------------------------------------| 4x
   |---------------------------------------------------------|
   |-2-0-2-0-2/3-0--2-1-3-0-4--2-0-2-0-2/3-0--2-1-3-0h(1)/5--|
   |-2-0-2-0-2/3-0--2-1-3-0-4--2-0-2-0-2/3-0--2-1-3-0h(1)/5--|
   PM. . . . . . .  . . . . .  . . . . . . .  . . . .  .  

   Riff# 4 2x

   Riff# 7   
   |--------|
   |--------|
   |--------| 1x
   |--77-7--|
   |--77-7--|
   |--------|


   Riff# 8 
   |----------------|
   |----------------|
   |----------------| 4x
   |----------------|
   |-2-0-2-0-2/3-0--|
   |-2-0-2-0-2/3-0--|
   PM. . . . . . .

   Riff# 6 4x
   Riff# 4 
   
   Riff# 9
   |-----------------------------|
   |-----------------------------|
   |-----------------------------| 2x
   |--7------10------9----8------|
   |--7-0-0--10-0-0--9-0--8------|
   |----0-0-----0-0----0---------|
   PM   . .     . .    .  

   Riff# 10
   |------------------------------|
   |------------------------------|
   |------------------------------| 3x
   |------------------------------|
   |--2-0-0--5--0-0--4--0--3------|
   |--2-0-0--5--0-0--4--0--3------|
   PM   . .     . .     .

   Riff# 11
   |-----------------------------|
   |-----------------------------|
   |--9------12-----11---10------| 1x
   |-----------------------------|
   |--7-0-0--10-0-0--9-0--8------|
   |----0-0-----0-0----0---------|
   PM   . .     . .    .  





Comments


Popular Mushroomhead tabs & chords
Before I Do Bass Tabs
Mother Machine Gun Bass Tabs
The Wrist 1 Bass Tabs
Track Bass Tabs
Wrist Bass Tabs
Born Of Desire 1 Tabs
Damage Done Tabs
Empty Spaces 1 Tabs
Episode Tabs
Never Let It Go 1 Tabs


Song lyrics



↑ Back to top | Tablatures and chords are parodies/interpretations of the original songs. You may use it for private study, scholarship, research or language learning purposes only
© 2014 AZChords.com Contact us | Privacy policy | DMCA | Add/correct tabs | Request tabs | Top 50 tabs