» » »

Bwomp Bass tabs (ver.2)

Artists:  A B C D E F G H I J K L M N O P Q R S T U V W X Y Z # 

Bwomp Bass tabs (ver.2)

Mushroomhead
Rating:
0/5 (0 votes)

Hard to play? Try these video lessons and learn fast.
                                       Bwomp by Mushroomhead


BLEED FOR ME...

|-------------------------------------------------------------------------|
|-------------------------------------------------------------------------|
|5-5-5-3-6-3---5-5-5-3-6-6------------------------------------------------|
|-------------------------------------------------------------------------|

Verse

|--------------------------------------------------------------------------|
|--------------------------------------------------------------------------|
|5555555555555555----------------------------------------------------------|
|--------------------------------------------------------------------------|

Rap + verse

|--------------------------------------------------------------------------|
|--------------------------------------------------------------------------|
|5-3-5-3-6-3---5-3-5-3-6-6-------------------------------------------------|
|--------------------------------------------------------------------------|


Slow down                               Slow down 2

|-------------------------------------|------------------------------------|
|1-----1-----1---0~-----0-3~-----3-2~-|1-----1-----1---0~------------------|
|-------------------------------------|------------------------------------|
|--1-1---1-1---1----------------------|--1-1---1-1---1---------------------|


 well that's it. BTW: ~ means to hold it.
            
Hard to play? Try these video lessons and learn fast. | Correct




comments powered by Disqus
↑ Back to top | Tablatures and chords are parodies/interpretations of the original songs. You may use it for private study, scholarship, research or language learning purposes only