» » »

Mushroomhead, Bwomp Tabs (ver.2)

Artists:  A B C D E F G H I J K L M N O P Q R S T U V W X Y Z # 

Bwomp Tabs (ver.2)

Mushroomhead Tabs
Rating:
0/5 (0 votes)
Bwomp lessons Tabs too difficult? Try these video lessons and learn fast
                Band - Mushroomhead
Song - Bwomp
Album - XX (2001)
Tuning - C,G,C,F,A,D

Intro
|-0--------------------------|
|-0--------------------------|
|-0--------------------------|
|-0--------------------------|   Fades in
|----------------------------|
|----------------------------|

|-----------------------------------------------|
|-----------------------------------------------|
|-----------------------------------------------|
|-----------------------------------------------|
|-2-0-2--0-2-3-0-2-0-2--0-2-3--2-0-2--0-2-3-0-2-|
|-2-0-2--0-2-3-0-2-0-2--0-2-3--2-0-2--0-2-3-0-2-|
  . . .  . . . . . . .  . .    . . .  . . . .

|----------------------|
|----------------------|
|-99999999999999999999-|
|-xxxxxxxxxxxxxxxxxxxx-|   Slightly palm muted
|-77777777777777777777-|
|----------------------|

|------------------|
|------------------|
|-9~--12~--11~-10~-|
|-x---x----x---x---|   2x
|-7~--10~--9~--8~--|
|------------------|

Play the two parts above again, I think you can figure out which ones.

|------------------------------------|
|------------------------------------|
|-9-7-9-7-7-10-7--9-7-9-7-7-10-10-10-|
|-x-x-x-x-x-x--x--x-x-x-x-x-x--x--x--|   2x
|-7-5-7-5-5-8--5--7-5-7-5-5-8--8--8--|
|------------------------------------|

Verse
|--------------------------------------------------------------|
|--------------------------------------------------------------|
|--------------------------------------------------------------|
|--------------------------------------------------------------|   2x
|-2-0-2--0-2-3-0-2-0-2--0-2-3--2-0-2--0-2-3-0-2-0-2--0-2-3-3-3-|
|-2-0-2--0-2-3-0-2-0-2--0-2-3--2-0-2--0-2-3-0-2-0-2--0-2-3-3-3-|
  . . .  . . . . . . .  . .    . . .  . . . . . . .  . .

|---------------|
|---------------|
|-9--12--11--10-|
|-x--x---x---x--|   Sounds awesome when you tremolo pick this part,
|-7--10--9---8--|   he doesn't do it on the record though.
|---------------|

Fill
|-------|
|-------|
|-------|
|-------|
|-2-2-2-|
|-2-2-2-|
  . . .

Verse Part 2
|------------------------------------------|
|------------------------------------------|
|------------------------------------------|
|------------------------------------------|
|-2-2-2--0-2-3-2-2-2--0-2-3-2-2-2--0-2-3-2-|
|-2-2-2--0-2-3-2-2-2--0-2-3-2-2-2--0-2-3-2-|
  . . .  . . . . . .  . . . . . .  . . . .

He throws in that fade in part in the intro here, he does it so quick that I usually 
skip it.

Play Verse again

Pre-Chorus when he says "From the whores"
|-----------------|
|-----------------|
|-----------------|
|-----------------|
|-1-0-0-1-0-0-1-0-|
|-3-0-0-3-0-0-3-0-|
    . .   . .   .

Chorus
|---------------------------------|
|---------------------------------|
|---------------------------------|
|-2-----5-----4-------------------|
|-2---x-5---x-4---1-0-0-1-0-0-1-0-|
|-2---x-5---x-4---3-0-0-3-0-0-3-0-|
                    . .   . .   .

Play Verse

Second Chorus Variation
|--------------------|
|--------------------|
|--------------------|
|-----------------2~-|
|-1-0-0-1-0-0-1-0-2~-|
|-3-0-0-3-0-0-3-0-2~-|
    . .   . .   .

End with
|-----------------------------|
|-----------------------------|
|-10~-------------------------|
|-x---------------------------|
|-8~--------------------------|
|-----------------------------|

This is 99% correct for THIS tuning. I know Mushroomhead uses 7-strings, but this sounds 
to the recording with just a 6-string.
            

comments powered by Disqus
↑ Back to top | Mushroomhead Tabs for Bwomp. Lyrics for acoustic guitar and electric guitar. Tablatures and chords are parodies/interpretations of the original songs. You may use it for private study, scholarship, research or language learning purposes only