>
 >
43 2

43 2 Guitar Tabs

Mushroomhead - 43 2 chords, tabs, tablatures, lyrics

Guitar lessons | Add/correct | Request | Top 50 tabs Artists:  A B C D E F G H I J K L M N O P Q R S T U V W X Y Z 0-9

43 2 Guitar Tabs – Mushroomhead

CD, Sheet music, Poster

Do you like 43 2? Share with your friends now
TabsTabs v2Tabs v3
Mushroomhead

   -43-


Tuning is C standard, down slightly less than a quarter step.

Verse
|-----------------------------------------------------------------|
|-----------------------------------------------------------------|
|-----------------------------------------------------------------|
|-----------------------------------------------------------------|
|-2-2-2---------------------------2-2-2---------------------------|
|-0-0-0---------------------------0-0-0---------------------------|
  - -                             - - 
|-----------------------------------------------------------------|
|-----------------------------------------------------------------|
|-----------------------------------------------------------------|
|-----------------------------------------------------------------|
|-2-2-2---------------------------2-2---2-2---2-2---2-2---2-2-2-2-|
|-0-0-0---------------------------0-0---0-0---0-0---0-0---0-0-0-0-|
  - -                             - -   - -   - -   - -   - - - -
Pre-Chorus
|---------------------------------|
|---------------------------------|
|---------------------------------|
|---------------------------------|
|-2-2-2-2-2-2-2-2-2-2-3---2-2-3---|
|-0-0-0-0-0-0-0-0-0-0-1---0-0-1---|
  - - - - - - - - - -     - -
Chorus
-Rhythm
|-----------------------------------------------------------------|
|-----------------------------------------------------------------|
|-----------------------------------------------------------------|
|-----------------------------------------------------------------|
|-2---2---1---2---5-----------5-------5---5---5---4---5---4---2---|
|-0---------------3-----------3-------3---3---3---2---3---2---0---|

|-----------------------------------------------------------------|
|-----------------------------------------------------------------|
|-----------------------------------------------------------------|
|-----------------------------------------------------------------|
|-2---2---1---2---5-----------5-------5---5---5---4-4-5-5-4-4-2-2-|
|-0---------------3-----------3-------3---3---3---2-2-3-3-2-2-0-0-|
                                                  - - - - - - - - 

-Lead
|-----------------------------------------------------------------|
|-----------------------------------------------------------------|
|-----------------------------------------------------------------|
|-----9---8---9---------------------------------------------------|
|-7---------------10----------10------10--10--10--9---10--9---7---|
|-----------------------------------------------------------------|

|-----------------------------------------------------------------|
|-----------------------------------------------------------------|
|-----------------------------------------------------------------|
|-----9---8---9---------------------------------------------------|
|-7---------------10----------10------10--10--10--9---10--9---7---|
|-----------------------------------------------------------------|

Break
|--------------------------------|
|--------------------------------|
|--------------------------------|
|--------------------------------|
|-2-----2------2---------8~------|
|-0-----0------0-----------------|


This whole section is a little hard to make out. I'm not 100% on this, but it sounds pretty 
close, and to me this sounds closer than any of the other tabs out there for this song.

Bridge Part 1
|---------------------------------|---------------------------------|
|---------------------------------|---------------------------------|
|---------------------------------|---------------------------------|
|---------------------------------|---------------------------------|
|-7-----7-----7-----7-----7-------|-7-----7-----7-----7-----7-------|
|---6-0---6-0---6-0---6-0---0-8~--|---6-0---6-0---6-0---6-0---0-6~--|
    - -   - -   - -   - -   -         - -   - -   - -   - -   - 

Bridge Part 2
|---------------------------------|---------------------------------|
|---------------------------------|---------------------------------|
|---------------------------------|---------------------------------|
|---------------------------------|---------------------------------|
|-7~----------7~----------7-------|-7~----------7~----------7-------|
|-------6~----------6~------0-7---|-------6~----------6~------0-7-8-|

Bridge Part 1, Version 2
|----------------------------------|----------------------------------|
|----------------------------------|----------------------------------|
|----------------------------------|----------------------------------|
|----------------------------------|----------------------------------|
|-7-----7-----7-----7-----8---8----|-7-----7-----7-----7-----5---8----|
|---6-0---6-0---6-0---6-0---6---6--|---6-0---6-0---6-0---6-0---6---6--|
    - -   - -   - -   - -   -   -      - -   - -   - -   - -   - 

Bridge Part 3
|-----------------|-----------------|-----------------|-----------------|
|-----------------|-----------------|-----------------|-----------------|
|-----------------|-----------------|-----------------|-----------------|
|-9---------------|-9---------------|-9---------------|-9---------------|
|-7-------8---8-7-|-7-------8---8-7-|-7-------8---8-7-|-7-------8---8-7-|
|---------6---6-5-|---------6---6-5-|---------6---6-5-|---------6---6-5-|

Bridge Part 1, Version 3
|----------------------------------|----------------------------------|
|----------------------------------|----------------------------------|
|----------------------------------|----------------------------------|
|-9-----9-----9-----9------10--12--|-9-----9-----9-----9------9---7---|
|-7-----7-----7-----7------8---10--|-7-----7-----7-----7------7---5---|
|---0000--0000--0000--0000---00----|---0000--0000--0000--0000---00----|

Bridge Part 3, Version 2
|-----------------|-----------------|-----------------|-----------------|-----------------|
|-----------------|-----------------|-----------------|-----------------|-----------------|
|-----------------|-----------------|-----------------|-----------------|-----------------|
|-9---------------|-9---------------|-9---------------|-9---------------|-----------------|
|-7-------8-------|-7-------8-------|-7-------8-------|-7-------8-------|-7---------------|
|---------6-------|---------6-------|---------6-------|---------6-------|-5---------------|

Ending
|--------------------------------|
|--------------------------------|
|--------------------------------|
|--------------------------------|
|-2-----2------2-----------------| (SMASH!)
|-0-----0------0-----------------|

Intro
Verse
Pre-Chorus
Verse
Pre-Chorus
Chorus
Verse
Pre-Chorus
Chorus
 Break
  Bridge Pt 1 (x2)
  Bridge Pt 2 (x2)
 Break
  Bridge Pt 1 Version 2 (x1)
  Bridge Pt 2           (x1)
 Break
  Bridge Pt 3
  Bridge Pt 1 Version 3
  Bridge Pt 3 Version 2
Verse
Pre-Chorus
Chorus
Ending





Comments


Popular Mushroomhead tabs & chords
Fear Held Dear Bass Tabs
12 Hundred 2 Tabs
2nd Thoughts Tabs
43 1 Tabs
Episode 29 Tabs
Fear Held Dear Tabs
Just Pretending 1 Tabs
Kill Tommorow Tabs
Kill Tomorrow 4 Tabs
One More Day 2 Tabs


Song lyrics



↑ Back to top | Tablatures and chords are parodies/interpretations of the original songs. You may use it for private study, scholarship, research or language learning purposes only
© 2014 AZChords.com Contact us | Privacy policy | DMCA | Add/correct tabs | Request tabs | Top 50 tabs