» » »

43 Tabs (ver.2)

Artists:  A B C D E F G H I J K L M N O P Q R S T U V W X Y Z # 

43 Tabs (ver.2)

Mushroomhead
Rating:
0/5 (0 votes)

Hard to play? Try these video lessons and learn fast.
                Band - Mushroomhead
Song - 43
Album - XX (2001)
Tuning - C,G,C,F,A,D

Intro
|---------------------------------|
|---------------------------------|
|---------------------------------|
|---------------------------------|
|-----0-0-0------0-0-0------0-0-0-|
|-12\-0-0-0------0-0-0------0-0-0-|
      . .        . .        . .

Fill
|--------------------------|
|--------------------------|
|--------------------------|
|--------------------------|
|-0-0--0-0--0-0--0-0-0-0-0-|
|-0-0--0-0--0-0--0-0-0-0-0-|
  . .  . .  . .  . . . . .

Heavy Intro
|-----------------------------|
|-----------------------------|
|-----------------------------|
|-----------------------------|
|-0-0-0-0-0-0-0-0-0-0-1-0-0-1-|
|-0-0-0-0-0-0-0-0-0-0-1-0-0-1-|
  . . . . . . . . . .   . .

Chorus
|-------------------------------|
|-------------------------------|
|---/14-12-14-10----------------|
|----x--x--x--x-----------------|
|-0-/12-10-12-8---3--3--1-3-1-0-|
|-0---------------3--3--1-3-1-0-|

Chorus Continued
|-------------------------------------|
|-------------------------------------|
|---/14-12-14-10----------------------|
|----x--x--x--x-----------------------|
|-0-/12-10-12-8---3--3--1-1-3-3-1-1-0-|
|-0---------------3--3--1-1-3-3-1-1-0-|
                        . . . . . .

Bridge Part 1
|------------------------------------|
|------------------------------------|
|--------8------------------8--------|
|-0-0-0--x--0-0-0----0-0-0--x--0-0-0-|
|-0-0-0--6--0-0-0----0-0-0--6--0-0-0-|
|-0-0-0-----0-0-0----0-0-0-----0-0-0-|
         *                  *          * = volume swell

Bridge Part 2
|--------------------------------|
|--------------------------------|
|-7-----7-----7-----7-----8---10-|
|-x-----x-----x-----x-----x---x--|
|-5-0-0-5-0-0-5-0-0-5-0-0-6-0-8--|
|---0-0---0-0---0-0---0-0---0----|
    . .   . .   . .   . .   .

Bridge Part 2 Continued
|-------------------------------|
|-------------------------------|
|-7-----7-----7-----7-----8---8-|
|-x-----x-----x-----x-----x---x-|
|-5-0-0-5-0-0-5-0-0-5-0-0-6-0-6-|
|---0-0---0-0---0-0---0-0---0---|
    . .   . .   . .   . .   .

Bridge Part 3
|-------------------|
|-------------------|
|-------------8---8-|
|-------------x---x-|
|-5b---5b---0-6-0-6-|
|----6----6-0---0---|
            .   .

Bridge Part 4
|-----------------------------|
|-----------------------------|
|-----------------------------|
|-7-----7-----7-----5----8----|
|-5-555-5-555-5-555-3-33-6-66-|
|-----------------------------|
    ...   ...   ...   ..   ..

Bridge Part 5
|-----------|
|-----------|
|-7-----8-5-|
|-7--6--8-5-|
|-5--6--6-3-|
|----6------|

Bridge Part 6
|-----------------------|
|-----------------------|
|-------------------8-5-|
|-7----7------------8-5-|
|-5-55-5-55-6-6-6-6-6-3-|
|-----------6-6-6-6-----|
    ..   ..   . . .

Bridge Part 7
|--------|
|--------|
|-7------|
|-7----6-|
|-5----6-|
|------6-|

Bridge Ending
|--------------------------------|
|--------------------------------|
|--------------------------------|
|-5~-----------------------------|
|-5~-----------------------------|
|-5~-----------------------------|

The Bridge parts may not be in exact order so listen to the song to hear when each part kicks in.
            
Hard to play? Try these video lessons and learn fast. | Correct




comments powered by Disqus
↑ Back to top | Tablatures and chords are parodies/interpretations of the original songs. You may use it for private study, scholarship, research or language learning purposes only