» » »

Mushroomhead, 43 Tabs (ver.1)

Artists:  A B C D E F G H I J K L M N O P Q R S T U V W X Y Z # 

43 Tabs (ver.1)

Mushroomhead Tabs
Rating:
5/5 (1 vote)
43 lessons Tabs too difficult? Try these video lessons and learn fast
                43 from Mushroomhead
Tuning: AEADGBe but you don't need a 7 string for this song.
-I suggest writing down the order for this song, as riffs are thrown in over a lot, I
will write the order as I go. This song was a bit of a pain because of all the stuff
going on it it, but I think I did OK for it.

Intro 1 is all drums and synthesizer.

Intro 2, just give a slide down on your bottom 2 strings.

Verse
-----------------------------------|
-----------------------------------|
-----------------------------------|
-----------------------------------|
-----------------------------------|
-22-2--22-2--22-2--22-22-22-222-22-|
-22-2--22-2--22-2--22-22-22-222-22-|
 ..    ..    ..    .. .. .. ... ..
Pre-chorus
-------------------------|
-------------------------|
-------------------------|
-----------------8----8--| (x4)
-----------------8----8--|
-000000000000-00-6-00-6--|
-000000000000-00---00----|
 ............ ..   ..
-play verse
-play pre-chorus

Chorus
--------------------|
--------------------|
--------------------|
--------------------| (x4)
-9\7-9-5--9~--2330--|
-7\5-7-3--9~--2330--|
----------9~--2330--|
-play verse
-play pre-chorus
-play chorus

Interlude 1
----------------|
----------------|
----------------|
----------------| (x4)
-------3--------|
-2-2-2---2-2-2--|
-2-2-2---2-2-2--|

Interlude 2 (that's a one and a zero, not a ten)
------------------------|
------------------------|
------------------------|
------------------------| (x2)
------------------------|
-2-2-2-2-35-2-2-2-2-10--|
-2-2-2-2-35-2-2-2-2-10--|

Interlude 3
----------------------------------|
----------------------------------|
----------------------------------|
----------------------------------|
----------------------------------|
-1br---1br---0325-1br---1br-0210--|
-----2-----2-0325-----2-----0210--|
-play interlude 1
-play interlude 2
-play interlude 3
-play interlude 1

Interlude 4
---------------------|
---------------------|
---------------------|
---------------------| (x2)
----3----------------|
-2~-1-3302-2~--3220--|
-2~---3302-2~--3220--|

Interlude 5
-----------------------------------------|
-----------------------------------------|
-----------------------------------------|
-----------------------------------------|
-----------------------------------------|
-2-22-2-22-2-22-235--2-22-2-22-2-22-210--|
-2-22-2-22-2-22-235--2-22-2-22-2-22-210--|
   ..   ..   ..        ..   ..   ..
Interlude 6
-----------------------------|
-----------------------------|
-----------------------------|
-----------------------------|
----3~----3~----3~----3~-----|
-2~-1~-2~-1~-2~-1~-2~-1~-5~--|
-2~----2~----2~----2~----5~--|
-play verse
-play pre-chorus
-play chorus

end on:
--------|
--------|
--------|
--------|
--------|
-2-2-2--|
-2-2-2--|
            

comments powered by Disqus
↑ Back to top | Mushroomhead Tabs for 43. Lyrics for acoustic guitar and electric guitar. Tablatures and chords are parodies/interpretations of the original songs. You may use it for private study, scholarship, research or language learning purposes only