» » »

Mushroomhead, 12 Hundred Tabs (ver.3)

Artists:  A B C D E F G H I J K L M N O P Q R S T U V W X Y Z # 

12 Hundred Tabs (ver.3)

Mushroomhead Tabs
Rating:
1/5 (1 vote)
12 Hundred lessons Tabs too difficult? Try these video lessons and learn fast
                                                 Mushroomhead
                                  12 Hundred
Tuning on a six string:
Bb Eb Ab Db Gb Bb 


This is the best tab on this site so check this sh*t out.
I dont know that sh*t he does at the very beginning. 

------------------------------------------------------|
------------------------------------------------------|
------------------------------------------------------|
------------------------------------------------------|
------------------------------------------------------|
--12\--1-0--0--0--0-1-0--0--0--0-1-0--0--0--0-1-0--0-0|

----------------------------------------------------------------|
----------------------------------------------------------------|
----------------------------------------------------------------|
----------------------------------------------------------------|
----------------------------------------------------------------|
--12\--1-0--0--0--0-1-0--0--0--0-1-0--0--0--0-1-0--1h4p3-0-1-3--|

-----------------------------------------------------------|
-----------------------------------------------------------|
-----------------------------------------------------------|
-----------------------------------------------------------|
-----------------------------------------------------------|
--1-0--0--0--0-1-0--0--0--0-1-0--0--0--0-1-0--1h4p3-0-1-3--|x4

I don't know exactly how Gravy does it but I do it this way and it sounds pretty clean.

----------------------------------------------------------------------|
----------------------------------------------------------------------|
----------------------------------------------------------------------|
----------------------------------------------------------------------|
----------------------------------------------------------------------|
--3-0-3-0-3-0-3-0-3-0-3-0-3-0-3-0-3-0-3-0-3-0-3-0-3-0--1h3-00-1h3-0-0-|
  . . . . . . . . . . . . . . . . . . . . . . . . . .      .. 

---------------------------------------------------------------------|  
---------------------------------------------------------------------|   
---------------------------------------------------------------------|   
---------------------------------------------------------------------|   
--0h7---0h7---0h7---0h7---0h7----0h8---0h8---0h8--10-12p10--10-12p10-|   
------0-----0-----0-----0-----00-----0-----0-------------------------|

You do this part like 4 times then back to the intro.
--------------------------------------------------------------------------|
--------------------------------------------------------------------------|
--------------------------------------------------------------------------|
--------------------------------------------------------------------------|
--------------------------------------------------------------------------|
-0-0--3-0-3-0-3-0-3-0-3-0-3-0-3-0-3-0-3-0-3-0-3-0-3-0-3-0--1h3-00-1h3-0-0-|
      . . . . . . . . . . . . . . . . . . . . . . . . . .      .. 

-----------------------------------------------------------|
-----------------------------------------------------------|
-----------------------------------------------------------|
-----------------------------------------------------------|
-----------------------------------------------------------|
--1-0--0--0--0-1-0--0--0--0-1-0--0--0--0-1-0--1h4p3-0-1-3--|

--------------------------------------|
--------------------------------------|
--------------------------------------|
--------------------------------------|
--------------------------------------|
-(effect)--12\--1-0--0-0h1-0h1-00-1-0-|
                     .         ..

---------------------------------------------------------------------|  
---------------------------------------------------------------------|   
---------------------------------------------------------------------|   
---------------------------------------------------------------------|   
--0h7---0h7---0h7---0h7---0h7----0h8---0h8---0h8--10-12p10--10-12p10-|   
------0-----0-----0-----0-----00-----0-----0-------------------------|

--------------------------------------------------------------------------|
--------------------------------------------------------------------------|
--------------------------------------------------------------------------|
--------------------------------------------------------------------------|
--------------------------------------------------------------------------|
-0-0--3-0-3-0-3-0-3-0-3-0-3-0-3-0-3-0-3-0-3-0-3-0-3-0-3-0--1h3-00-1h3-0-0-|
      . . . . . . . . . . . . . . . . . . . . . . . . . .      .. 

------------------------------------------------------------------------|
------------------------------------------------------------------------|
------------------------------------------------------------------------|
------------------------------------------------------------------------|
------------------------------------------------------------------------|
-0-0--3-0-3-0-3-0-3-0-3-0-3-0-3-0-3-0-3-0-3-0-3-0-3-0-3-0--1h3-00-1h3-0-|x4
      . . . . . . . . . . . . . . . . . . . . . . . . . .      .. 


Check out my video. 
            

comments powered by Disqus
↑ Back to top | Mushroomhead Tabs for 12 Hundred. Lyrics for acoustic guitar and electric guitar. Tablatures and chords are parodies/interpretations of the original songs. You may use it for private study, scholarship, research or language learning purposes only