» » »

Mushroomhead, 12 Hundred Bass tabs (ver.1)

Artists:  A B C D E F G H I J K L M N O P Q R S T U V W X Y Z # 

12 Hundred Bass tabs (ver.1)

Mushroomhead Tabs
 Rating:
3.6/5 (5 votes)
12 Hundred lessons Tabs too difficult? Try these video lessons and learn fast
1
                Mushroomhead
12 hundred
Savior sorrow

(0:17)
||---------------------------------------------------||
||---------------------------------------------------||
||---------------------------------------------------||
||1-0---0---0---0-1-0---0---0---0-1-0---0---0---0-1-0||
  S S   S   S   S S S   S   S   S S S   S   S   S S S

(0:24)
||----------||
||----------||
||----------||
||5-4-0-3-5-||
  S S S S S

(0:25)
||---------------------------------------------------||
||---------------------------------------------------||
||---------------------------------------------------||
||1-0---0---0---0-1-0---0---0---0-1-0---0---0---0-1-0||
  S S   S   S   S S S   S   S   S S S   S   S   S S S

(0:32
||----------||
||----------||
||----------||
||5-4-0-3-5-||
  S S S S S

(rest until 0:41)

(0:41)
||---------------------------------------------------||
||---------------------------------------------------||
||---------------------------------------------------||
||1-0---0---0---0-1-0---0---0---0-1-0---0---0---0-1-0||
  S S   S   S   S S S   S   S   S S S   S   S   S S S

(0:49)
||----------||
||----------||
||----------||
||5-4-0-3-5-||
  S S S S S

(0:51)
||--------------------------||
||--------------------------||
||--------------------------||
||00000000000000000003b03b4b||
  SSSSSSSSSSSSSSSSSSSSSSSSSS
^
i dunno about that, the part with the 3's, you'll know when to come in on that.
(1:06)
||----------||
||----------||
||----------||
||--(rest)--||

(1:15)
||--------||
||--------||
||--------||
||7~~~~~~~||
  S

(1:19)
||--------||
||--------||
||--------||
||5~~~~~~~||
  S

(1:23)
||--------||
||--------||
||--------||
||7~~~~~~~||
  S

(1:31)
||--------------------------||
||--------------------------||
||--------------------------||
||00000000000000000003b03b4b||
  SSSSSSSSSSSSSSSSSSSSSSSSSS

(1:47)
||---------------------------------------------------||
||---------------------------------------------------||
||---------------------------------------------------||
||1-0---0---0---0-1-0---0---0---0-1-0---0---0---0-1-0||
  S S   S   S   S S S   S   S   S S S   S   S   S S S

(1:54)
||----------||
||----------||
||----------||
||5-4-0-3-5-||
  S S S S S

(1:56)
||---------------------------------------------------------||
||---------------------------------------------------------||
||---------------------------------------------------------||
||1-0---0---0---0-1-0---0---0---0-1-0---0---0---0-1-0||
  S S   S   S   S S S   S   S   S S S   S   S   S S S

(2:02)
||----------||
||----------||
||----------||
||5-4-0-3-5-||
  S S S S S

(2:03)
||---------------------------------------------------||
||---------------------------------------------------||
||---------------------------------------------------||
||1-0---0---0---0-1-0---0---0---0-1-0---0---0---0-1-0||
  S S   S   S   S S S   S   S   S S S   S   S   S S S

(2:10)
||----------||
||----------||
||----------||
||5-4-0-3-5-||
  S S S S S

(2:13)
||-----------------------------------------------------------||
||-----------------------------------------------------------||
||-----------------------------------------------------------||
||1-0---0---0---0-1-0---0---0---0-1-0---0---0---0-1-0-(rest)-||
  S S   S   S  S  S  S  S   S   S S S   S   S   S  S S

(2:37)
||--------||
||--------||
||--------||
||7~~~~~~~||
  S
(2:41)
||--------||
||--------||
||--------||
||5~~~~~~~||
  S
(2:46) - This is the part where i'm not sure about so sorry.
||--------------------------------||
||--------------------------------||
||--------------------------------||
||-03-03-03-03-05-05-05-05-078-078||
   SS SS SS SS SS SS SS SS SSS SSS

(3:02)
||--------------------------||
||--------------------------||
||--------------------------||
||00000000000000000003b03b4b||
  SSSSSSSSSSSSSSSSSSSSSSSSSS

  Thats the end of it, just keep in mind that this is probably not 100% correct

  
            
Submit corrections

comments powered by Disqus
↑ Back to top | Mushroomhead Bass for 12 Hundred. Lyrics for acoustic guitar and electric guitar. 1 Tablatures and chords are parodies/interpretations of the original songs. You may use it for private study, scholarship, research or language learning purposes only