» » »

12 Hundred Tabs (ver.1)

Artists:  A B C D E F G H I J K L M N O P Q R S T U V W X Y Z # 

12 Hundred Tabs (ver.1)

Mushroomhead
Rating:
1/5 (1 vote)

Hard to play? Try these video lessons and learn fast.
                -------------------------------------------------------------------------------
-------------------------------------------------------------------------------


Tuning: Drop A of course

the song is simple, I just dont know what note they play for the pinch harmonics though.
is welcome to tell me =]

The intro is done with an EQ pedal. Its starts with a harmonic but I dont know the note.
|---------------------------------------------------------------------------|
|---------------------------------------------------------------------------|
|---------------------------------------------------------------------------|
|-0-1-0.-0.-0.--0-1-0.-0.-0.------------------------------------------------|
|-0-1-0.-0.-0.--0-1-0.-0.-0.------------------------------------------------|
|-0-1-0.-0.-0.--0-1-0.-0.-0.------------------------------------------------|
do this 2 times then slide to 12 and back down. Then second time you play this for the
you play this at the end after playing the riff 3 times:
|---------------------------------------------------------------------------|
|---------------------------------------------------------------------------|
|---------------------------------------------------------------------------|
|-0-1-0.--0-5-4-0-3-4.------------------------------------------------------|
|-0-1-0.--0-5-4-0-3-4.------------------------------------------------------|
|-0-1-0.--0-5-4-0-3-4.------------------------------------------------------|


Main Riff:
|---------------------------------------------------------------------------|
|---------------------------------------------------------------------------|
|---------------------------------------------------------------------------|
|-0-1-0.-0.-0.--0-1-0.-0.-0.--0-1-0.-0.-0.--0-1-0.--0-5-4-0-3-4.------------|
|-0-1-0.-0.-0.--0-1-0.-0.-0.--0-1-0.-0.-0.--0-1-0.--0-5-4-0-3-4.------------|
|-0-1-0.-0.-0.--0-1-0.-0.-0.--0-1-0.-0.-0.--0-1-0.--0-5-4-0-3-4.------------|

play that a couple times then the second part of the intro then the main riff again.

Pre-Chorus:
listen for timing, not sure if you play the A string alone or not where you palm mute 
but I think it sounds better like this.
|---------------------------------------------------------------------------|
|---------------------------------------------------------------------------|
|---------------------------------------------------------------------------|
|----------------------------------------------------3---1-0.---------------|
|----------------------------------------------------3---1-0.---------------|
|-0-0-0-0-0-0-0-0-0-0-0-0-0-0-0-0-0-0-0-0-0-0-0-0--0-3-0-1-0.---------------|
pm. . . . . . . . . . . . . . . . . . . . . . . .  .   .

Chorus:
|---------------------------------------------------------------------------|
|---------------------------------------------------------------------------|
|---------------------------------------------------------------------------|
|-x8x8x8x8-xxxx x9x9x9x9----------------------------------------------------|
|-x8x8x8x8-xxxx-x9x9x9x9----------------------------------------------------|
|-x8x8x8x8-xxxx-x9x9x9x9-9h11~-0h11~----------------------------------------|
Play 4 times then
pre-chorus again 4 times then main riff a couple times.

then Main Riff with a change:
|---------------------------------------------------------------------------|
|---------------------------------------------------------------------------|
|---------------------------------------------------------------------------|
|-x 1 0. 0. 0. x 1-0.-0.-0.-x-1-0.-0.-0.-x-1-0.-0.-0.-----------------------|
|-x-1-0.-0.-0.-x-1-0.-0.-0.-x-1-0.-0.-0.-x-1-0.-0.-0.-----------------------|
|-x-1-0.-0.-0.-x-1-0.-0.-0.-x-1-0.-0.-0.-x-1-0.-0.-0.-----------------------|
after each time play that riff you play the harmonic and slide to 12 and back down. You
that whole thing 4 times.

Then you play the Chorus 8 times then the Pre-chorus 4 times.
and THATS IT =]

Any suggestions are welcome =]
            
Hard to play? Try these video lessons and learn fast. | Correct




comments powered by Disqus
↑ Back to top | Tablatures and chords are parodies/interpretations of the original songs. You may use it for private study, scholarship, research or language learning purposes only