» » »

Muse, Twin Bass tabs (ver.2)

Artists:  A B C D E F G H I J K L M N O P Q R S T U V W X Y Z # 

Twin Bass tabs (ver.2)

Muse Tabs
 Rating:
4/5 (4 votes)
Twin lessons Tabs too difficult? Try these video lessons and learn fast
                [Artist] _Muse_
[Song] _Twin_
[Album] _Cave CD1 B-Side_
[Bassist] _Chris Wolstenholme_

[Tuning] _EADG_


__KEY__

h = Hammer-on
p = Pull-off
x = Muted Hit
\ = Slide Down
/ = Slide Up
(15) = Don't Play

Intro and Verse 1 (0:21 - 0:59)

G|------------------|
D|------------------| Repeat
A|-----6h8p6--------|
E|-3-3-------x-8-10-|

Chorus (1:00 - 1:18)

G|---------------------------------------|
D|---------------------------------------| Repeat
A|--------------------3333333333333333\0-|
E|-3-3--4-4--5-5--6-6--------------------|

---> Intro and Verse 2 (1:20 - 1:47)

---> Chorus (1:48 - 2:06)

Bridge (2:07 - 2:16)

G|----------------------------------|
D|----------------------------------|
A|----------------------------------|
E|-3-3----3-3----3-3----3-3--/(15)\-|

---> Intro (2:17 - 2:36)

---> Chorus (2:36 - 2:53)

Outro (2:53 - 3:02)

G|---------------3h5-|
D|-------------------| Repeat
A|-3-3-3-3-3-3-3-----|
E|-------------------|

End with: (3:03)

G|----||
D|----||
A|-2--||
E|----||
            
Submit corrections

comments powered by Disqus
↑ Back to top | Muse Bass for Twin. Lyrics for acoustic guitar and electric guitar. Tablatures and chords are parodies/interpretations of the original songs. You may use it for private study, scholarship, research or language learning purposes only