>
 >
Thoughts Of A Dying Atheist 1

Thoughts Of A Dying Atheist 1 Guitar Tabs

Muse - Thoughts Of A Dying Atheist 1 chords, tabs, tablatures, lyrics

Guitar lessons | Add/correct | Request | Top 50 tabs Artists:  A B C D E F G H I J K L M N O P Q R S T U V W X Y Z 0-9

Thoughts Of A Dying Atheist 1 Guitar Tabs – Muse

CD, Sheet music, Poster

Do you like Thoughts Of A Dying Atheist 1? Share with your friends now
TabsTabs v2
Tuning: E-a-d-g-b-e (Standard)



Intro - Slight Distortion: 

e-|--------10-----10-----10-----10-----10------
b-|----------11-----11-----11-----11-----11----
g-|------------12-----12-----12-----12-----12--   (X2)
d-|--11/12-------------------------------------
a-|-------------------------------------------- 
E-|--------------------------------------------  



Verse - Slight Distortion:

e-|-----------10-----10-----10-----10-----
b-|------11-----11-----11-----11-----11---
g-|----12--12-----12-----12-----12-----12-   (X2)
d-|--12-----------------------------------
a-|---------------------------------------
E-|---------------------------------------


e-|-----------11-----11-----11-----11-----
b-|------11-----11-----11-----11-----11---
g-|----12--12-----12-----12-----12-----12-  
d-|--13-----------------------------------
a-|---------------------------------------
E-|---------------------------------------

e-|-----------10----------------10--------
b-|------10-----10--10-----10-----10--10--
g-|----11--10-----11-----11--11-----11----   
d-|--12----------------12-----------------
a-|---------------------------------------
E-|---------------------------------------

e-|-----------10----------------11----------------13-----13-----13-----13------
b-|------11-----11--11-----11-----11--11-----13-----13-----13-----13-----13----
g-|----12--12-----12-----12--12-----12-----14--14-----14-----14-----14-----14--  
d-|--12----------------13----------------15------------------------------------
a-|----------------------------------------------------------------------------
E-|----------------------------------------------------------------------------

e-|-----------11-----11-----11-----11-----
b-|------11-----11-----11-----11-----11---
g-|----12--12-----12-----12-----12-----12-  
d-|--13-----------------------------------
a-|---------------------------------------
E-|---------------------------------------

e-|-----------10----------------10--------
b-|------10-----10--10-----10-----10--10--
g-|----11--10-----11-----11--11-----11----   
d-|--12----------------12-----------------
a-|---------------------------------------
E-|---------------------------------------



Chorus - Distortion:
e-|------------------------------------------------------------------------
b-|------------------------------------------------------------------------
g-|--xxxx--17-15-14--15-14-15-16----17-15-14--15-14-17-18--16-15-14-13-12--
d-|--xxxx--x--x--x---x--x--x--x-----x--x--x---x--x--x--x---x--x--x--x--x---
a-|--xxxx--15-13-12--13-12-13-14----15-13-12--13-12-15-16--14-13-12-11-10--
E-|------------------------------------------------------------------------



Interlude - Slight Distortion with Phaser:

e-|--10~--11~--10~--10-10-10--10-10-10--10-10-10--10-10-10--
b-|--11~--11~--11~--10-10-10--10-10-10--10-10-10--10-10-10--
g-|--12~--12~--12~--11-11-11--11-11-11--11-11-11--11-11-11--   
d-|--12~--13~--12~--12-12-12--12-12-12--12-12-12--12-12-12--
a-|---------------------------------------------------------
E-|---------------------------------------------------------
Palm Mute:          *  *      *  *      *  *      *  *  



Solo - Distortion with Wah-Wah:

e-|-----------------------------------------------------------------
b-|-----------------------------------------------------------------
g-|-----------------------------------------------------------------  
d-|--12^~-12-10-8-7-8-7--13~-13-15-13-12-13--12/1--15^-13-12-13-12--
a-|-----------------------------------------------------------------
E-|-----------------------------------------------------------------

e-|--------------------------------------------
b-|--------------------------------------------
g-|--------------------------------------------
d-|--13-12/13-15-13/15-17^-17--17^~ 17^~ 18^~--
a-|--------------------------------------------
E-|--------------------------------------------





Comments


Popular Muse tabs & chords
Burning Bandits Bass Tabs
Host 2 Bass Tabs
House Of The Rising Sun Bass Tabs
Minimum 2 Bass Tabs
Mk Ultra Bass Tabs
Assassin 3 Tabs
Invincible 2 Tabs
Knights Of Cydonia Live Tabs
Neutron Star Collision 4 Tabs
Hoodoo Ukulele


Song lyrics



↑ Back to top | Tablatures and chords are parodies/interpretations of the original songs. You may use it for private study, scholarship, research or language learning purposes only
© 2014 AZChords.com Contact us | Privacy policy | DMCA | Add/correct tabs | Request tabs | Top 50 tabs