» » »

Muse, The Groove Tabs (ver.1)

Artists:  A B C D E F G H I J K L M N O P Q R S T U V W X Y Z # 

The Groove Tabs (ver.1)

Muse Tabs
Rating:
0/5 (0 votes)
Hard to play? Try these video lessons and learn fast.
                This is my first tab
Lots of feedback throughout the song
Intro ive gotta hear the song agen b4 i can finish-ill do it 2nite


Verse 
e
B
G------2----------------6----------------2h4p2
D----4---4----------7----------2-----2h4-------4h2--------2--4-2-4
A----------4-3-2------4--5-6----------------------------4
E--2--------------5----------0---0-0---------------0h2

e
B
G------2----------------6----------------2h4p2
D----4---4----------7----------2-----2h4-------4h2--------2--4-3-2
A----------4-3-2------4--5-6----------------------------4
E--2--------------5----------0---0-0---------------0h2

Chorus for guitar 1
e
B
G---------6----------------------------7
D----7-------------------6--------9-----------------7
A------4----5-6----7----------------5-----7-8-9---9-----9
E--5-------------0----4-----5-6-7--------------------------9-8-7

e
B
G---------6----------------------------7
D----7-------------------6--------9-----------------7
A------4----5-6----7----------------5-----7-8-9---9-----9
E--5-------------0----4-----5-6-7--------------------------9-8-7

e-X--X--X-X-X-X
B-X--X--X-X-X-X
G-X--X--X-X-X-X
D-X--X--X-X-X-X
A
E

Solo for guitar 2 nearly finished(guitar 1 plays the verse riff)

End Chorus for guitar 1(guitar 2 plays a solo over the top)
e
B
G---------6-----------------------------7
D----7-------------------6---------9---------------7
A-------4----5-6----7----------------5-----7-8---9----9
E--5-------------0----4-----5-6-7-----------------------9-8-7

e
B
G---------6-----------------------------7
D----7-------------------6---------9
A-------4----5-6----7----------------5-----7-8-9---9
E--5-------------0----4-----5-6-7

Guitar chorus solo nearly finished
            

comments powered by Disqus
↑ Back to top | Muse Tabs for The Groove. Lyrics for acoustic guitar and electric guitar. Tablatures and chords are parodies/interpretations of the original songs. You may use it for private study, scholarship, research or language learning purposes only