» » »

Muse, Sun Burn Tabs (ver.3)

Artists:  A B C D E F G H I J K L M N O P Q R S T U V W X Y Z # 

Sun Burn Tabs (ver.3)

Muse Tabs
 Rating:
4/5 (4 votes)
Sun Burn lessons Tabs too difficult? Try these video lessons and learn fast
                Band/Artist - Muse
Song/Track - Sunburn
Tuning - Standered (EADGBe)

this sounds at least 95%

x - mute

intro/verse part 1 - translated for guitar from piano
e-----7--------7----------------7---------7------------
B--------8--------8-----8----------10--------10----10--
G-----------9--------9-----------------9---------9-----
D--9-------------------------7-------------------------
A------------------------------------------------------
E------------------------------------------------------

e-----8--------8----------------7---------7------------
B--------8--------8-----8----------10--------10----10--
G-----------9--------9-----------------9---------9-----
D--10-------------------------7------------------------x8
A------------------------------------------------------
E------------------------------------------------------

verse part 2
e-----12--------12---------------12-------14-12----12--
B--------12--------12----12---------13----------13-----
G-----------12--------12---------------14-------------- 
D------------------------------------------------------ 
A--14--------------------------12---------------------- 
E------------------------------------------------------ 

e-----15-------17-15-------------12-------14-12----12--
B--------17----------19-17----------13----------13-----
G-----------17-------------------------14--------------
D------------------------------------------------------x4
A--15--------------------------12----------------------
E------------------------------------------------------

chorus
e--0--------0--
B--1--------0--
G--2--------0--
D--2--------2--x4
A--0--------2--
E--x--------x--

play the verse through part 1 x2, part 2 x4

play chorus x4

bridge
e--12--
B--x---tremolo pick this usin an effect. could be a
G--9---pitchshifter and gradually make note higher or
D------slide it up the fret board.
A------
E------

e--12------15---14-----12--11-----8---7--
B--x-------x----x------x---x------x---x--    another effect used here
G--9-------12---11-----9---8------5---4--x2  tremolo picking
D----------------------------------------
A----------------------------------------
E----------------------------------------

play chorus x8

theres another piano outro
and thats it.
            
Submit corrections

comments powered by Disqus
↑ Back to top | Muse Tabs for Sun Burn. Lyrics for acoustic guitar and electric guitar. Tablatures and chords are parodies/interpretations of the original songs. You may use it for private study, scholarship, research or language learning purposes only