>
 >
Showbiz 2

Showbiz 2 Guitar Tabs

Muse - Showbiz 2 chords, tabs, tablatures, lyrics

Guitar lessons | Add/correct | Request | Top 50 tabs Artists:  A B C D E F G H I J K L M N O P Q R S T U V W X Y Z 0-9

Showbiz 2 Guitar Tabs – Muse

CD, Sheet music, Poster

Do you like Showbiz 2? Share with your friends now
TabsTabs v2Tabs v3
^ = bend string

e|----------------------------------------------------------------
B|----------------------------------------------------------------
G|----------------------------------------------------------------
D|-4-4-4-4-4-4-4-4-4-4-4-4-4-4-4-4--------------------------------
A|----------------------------------------------------------------
E|----------------------------------------------------------------

Play when he sings “Controlling my feelings for too long”

e|----------------------------------------------------------------
B|----------------------------------------------------------------
G|----------------------------------------------------------------
D|--4444444444444444-4444444444444444-----------------------------
A|--5555555555555555-5555555555555555-----------------------------
E|-------------------7777777777777777-----------------------------

 “Forcing our darkest souls to unfold”

e|----------------------------------------------------------------
B|----------------------------------------------------------------
G|----------------------------------------------------------------
D|--4444444444444444-4444444444444444-----------------------------
A|--5555555555555555-5555555555555555-----------------------------
E|--5555555555555555-7777777777777777-----------------------------

“Pushing us into self destruction”

Chord sequence
e|--2--1--4--2----------------------------------------------------
B|--2--2--2--3----------------------------------------------------
G|--2--3--2--4----------------------------------------------------
D|--4--0--4--4----------------------------------------------------
A|--4-------------------------------------------------------------
E|--2-------------------------------------------------------------

 Pick these chords through twice

e|----------------------------------------------------------------
B|----------------------------------------------------------------
G|----------------------------------------------------------------
D|----------------------------------------------------------------
A|--9-11-12-12^-11-9-11^------------------------------------------
E|----------------------------------------------------------------

  Play 8 times

For the chorus you can play the chord sequence or you can use these power chords

e|----------------------------------------------------------------
B|----------------------------------------------------------------
G|------6-4-------------------------------------------------------
D|--4-7-6-4-------------------------------------------------------
A|--4-7-4-2-------------------------------------------------------
E|--2-5-----------------------------------------------------------


e|----------------------------------------------------------------
B|--7-9-10-10^-9-7-9^-7-------------------------------------------
G|----------------------------------------------------------------
D|----------------------------------------------------------------
A|----------------------------------------------------------------
E|----------------------------------------------------------------

Play 6 times

Repeat the chorus

e|--------------------------|-------------------------------------
B|-7-9-10-12-14-15-17-18-19-|-19-21-21-19-21-19-21----------------
G|--------------------------|-------------------------------------
D|--------------------------|-------------------------------------
A|--------------------------|-------------------------------------
E|--------------------------|-------------------------------------

Tremolo pick this part      | 	pick this

e|----------------------------------------------------------------
B|--19 21-22-22^-21-19 21^-19-------------------------------------
G|----------------------------------------------------------------
D|----------------------------------------------------------------
A|----------------------------------------------------------------
E|----------------------------------------------------------------

Play this little gem 4 times and then pick the chord sequence and your done.





Comments


Popular Muse tabs & chords
Apocalypse Please 1 Bass Tabs
Bliss 2 Bass Tabs
Megalomania Bass Tabs
Mk Ultra Bass Tabs
Fillip Chords
Hyper Chondriac Music 1 Chords
A Crying Shame Intro Tabs
Apocalypse Please 1 Tabs
Escape Ukulele
Fury Ukulele


Song lyrics



↑ Back to top | Tablatures and chords are parodies/interpretations of the original songs. You may use it for private study, scholarship, research or language learning purposes only
© 2014 AZChords.com Contact us | Privacy policy | DMCA | Add/correct tabs | Request tabs | Top 50 tabs