» » »

Muse, Pink Ego Box Bass tabs (ver.1)

Artists:  A B C D E F G H I J K L M N O P Q R S T U V W X Y Z # 

Pink Ego Box Bass tabs (ver.1)

Muse Tabs
 Rating:
4/5 (4 votes)
Pink Ego Box  lessons Tabs too difficult? Try these video lessons and learn fast
                (1)
Intro/verse
G----------------------------------------------------------------------
D----00----00----00----00----00-----------------------------------
A--------------------------------------------------------------------              x3
E-22----22----22----22----22------------------------------2------

G-----------------------------------------------------------------
D------------11-----------------------------------------------------
A-----------------------------------------------------------------                 x2
E-00-22-00----00-111111111|-22-22---------------------------------
                
G-----------------------------------------------------------------
D-------------11-----------------------------------------------------
A-----------------------------------------------------------------                 
E-00-22-00----00-111111111|-22-22-22-22-22-22-22-

Chorus
G-----------------------------------------------------------------
D-11-1-1-1-1-11-1-------------------------------------------------
A-----------------------------------------------------------------
E-----------------------5/0--------------------------------------------

Verse
G-----------------------------------------------------------------
D----00----00----00----00----00----00-----------------------------
A-----------------------------------------------------------------
E-22----22----22----22----22----22----2---------------------------

G-----------------------------------------------------------------
D-----------11----------------------------------------------------
A-----------------------------------------------------------------                   
E-00-22-00-----00-11111111|-22-22---------------------

G-----------------------------------------------------------------
D-----------11----------------------------------------------------
A-----------------------------------------------------------------                   
E-00-22-00-----00-11111111|-22-22-22-22-22-22-22-

Outro
G----------------------------------------------------------
D----00----00----00----00----00----00----00-------
A-----------------------------------------------------------             x2
E-22----22----22----22----22----22----22---------2-
  
G----------------------------------------------------------------
D-5---5---5---5---5-----5-------5-------5-----5-----------------------
A---5---5---5---5---345---345---345---345-------------------------
E-----------------------------------------------------------------

G-----------------------------------------------------------------
D----00----00----00----00---00----00----00----00------------------
A-----------------------------------------------------------------
E-22----22----22----22----22---22----22----22---------------------

G-------
D-------
A-------           x9
E-21012-
  
G-------------------------------------------
D-------------------------------------------
A----------------------------0345--------              x4
E--21012-21012-21012-----------2-

And the order is :
Intro/Verse
Chorus
Verse
Chorus
Outro
            
Submit corrections

comments powered by Disqus
↑ Back to top | Muse Bass for Pink Ego Box. Lyrics for acoustic guitar and electric guitar. Tablatures and chords are parodies/interpretations of the original songs. You may use it for private study, scholarship, research or language learning purposes only