>
 >
Pink Ego Box

Pink Ego Box Guitar Tabs

Muse - Pink Ego Box chords, tabs, tablatures, lyrics

Guitar lessons | Add/correct | Request | Top 50 tabs Artists:  A B C D E F G H I J K L M N O P Q R S T U V W X Y Z 0-9

Pink Ego Box Guitar Tabs – Muse

CD, Sheet music, Poster

Do you like Pink Ego Box? Share with your friends now
Tabs
Tuning: E-a-d-g-b-e (Standard)


An amazing song by the greatest band in the world.


Intro (Clean) - Play this part twice:
e-|-----------------------------------------------------------------|
b-|-----------------------------------------------------------------|
g-|--6---6---6---6---6---6---6---6---6---6---6---6---6---6---6---6--|
d-|-8---8---8---8---8---8---8---8---7---7---7---7---7---7---7---7---|
a-|-----------------------------------------------------------------|
E-|-----------------------------------------------------------------|


...followed by this:
e-|----------------------------------------------------|
b-|----------------------------------------------------|
g-|--6---6---6---6---6---6---6---6---6---6---6---6-----|
d-|-8---8---8---8---8---8---8---8---7---7---7---7---7--|
a-|----------------------------------------------------|
E-|----------------------------------------------------|


First Verse (Clean with slight palm-mute):

e-|-------------------------|         e-|------------------------| 
b-|-------------------------|         b-|------------------------|
g-|-6-6---------------------| (x5)    g-|-6-6-6-6-6-6-6-6---5-5--|
d-|-8-8---8--8--8--(8--8)---|         d-|-7-7-7-7-7-7-7-7---7-7--| 
a-|-------------------------|         a-|------------------------| 
E-|-------------------------|         E-|------------------------|

before the chorus add this, gradually fading off the palm mute:

e-|---------------------------| 
b-|---------------------------|
g-|--5-5-5-5-5-5-5-5-0-0-0-0--|
d-|--7-7-7-7-7-7-7-7-0-0-0-0--| 
a-|---------------------------| 
E-|---------------------------|


Chorus (Slight Distortion):

e-|--2-2--2-2--2-2--2-2-2--------3----3-----------| 
b-|--3-3--3-3--3-3--3-3-3----------3--3-----------|
g-|--3-3--3-3--3-3--3-3-3-------------3-----------|
d-|----------------------------5------5-----------| 
a-|--------------------------5--------5-----------| 
E-|-----------------------------------3-----------|
         

Second Verse (Slight Distortion):

Play the same as the first verse, but use this instead...
e-|------------------------|
b-|------------------------|
g-|-6-6-6-6-6-6-6-6-6-6-6--|
d-|-8-8-8-8-8-8-8-8-8-8-8--|
a-|------------------------|
E-|------------------------|
        * *   * *   * *         * = Palm Mute


Ending:

Bass:
                          
g-|------------------------------------| (x2)    
d-|------------------------------------|                           
a-|------------------------------------|                           
E-|--8-7-5-7-8-7-5-7-8-7-5-7-8-7-5-7---|

                       
g-|-----------------------------------| (x5)   
d-|-----------------------------------|                           
a-|-----------------------------------|                           
E-|--8-7-5-7-8-7-5-7-8-7-5-3-5-3-5-7--|



Guitar (Trem Picking):

e-|-------------------------------------------|                           
b-|-------------------------------------------|                           
g-|-------------------------------------------|    
d-|--10-10-10-10-9-9-9-9-7-7-7-7-9-9-9-9------|                           
a-|-------------------------------------------|                           
E-|-------------------------------------------|   

e-|--------------|                           
b-|--19-19-19-19-|                           
g-|--------------| (Repeat as Appropriate)   
d-|--------------|                           
a-|--------------|                           
E-|--------------|                           

then end on...
e-|------|                           
b-|--19~-|                           
g-|------| (With Ad Lib Distortion)   
d-|------|                           
a-|------|                           
E-|------|





Comments


Popular Muse tabs & chords
Follow Me Chords
Map Of Your Head 1 Chords
Citizen Erased 8 Tabs
Con-science 3 Tabs
Exo-politics 2 Tabs
Hoodoo Intro Tabs
Knights Of Cydonia Live 2 Tabs
Man Of Mystery Tabs
Stockholm Syndrome 1 Tabs
Coma Ukulele


Song lyrics



↑ Back to top | Tablatures and chords are parodies/interpretations of the original songs. You may use it for private study, scholarship, research or language learning purposes only
© 2014 AZChords.com Contact us | Privacy policy | DMCA | Add/correct tabs | Request tabs | Top 50 tabs