» » »

Muse, New Born Tabs (ver.4)

Artists:  A B C D E F G H I J K L M N O P Q R S T U V W X Y Z # 

New Born Tabs (ver.4)

Muse Tabs
 Rating:
4/5 (4 votes)
New Born lessons Tabs too difficult? Try these video lessons and learn fast
1
                (Correct)
Muse - New Born

well i know that the verse and intro and interlude bit are
the same as all the other tabs in one part or another, the chorus is
actually correct in this tab! Its actually been tabbed correctly
now!

drop-d tuning



E----7-------7-------7-------7-------|  
B------8---8---8---8---7---7---7---7-|  
G--------9-------9-------8-------8---|  
D------------------------------------|x2
A------------------------------------|  
D------------------------------------|

E--7-------7-------8-------8-------7-------7-------7-------7-------|
B----8---8---8---8---8---8---8---8---8---8---8---8---7---7---7---7-|
G------9-------9-------9-------9-------7-------7-------8-------8---|
D------------------------------------------------------------------|
A------------------------------------------------------------------|
D------------------------------------------------------------------|

then singing comes in after this x2, then you play 6 more times

then the cool bit:
E------------------------------------------------------------------------|
B------------------------------------------------------------------------|
G------------------------------------------------------------------------|
D------------------------------------------------------------------------|
A------------------------------------------------------------------------|
D---2-2-2-2-5-2-5/6-7-7-7-7-10-7-10-11-12-0-0-12-0-0-2-3-5-5-5-9-9-7-7---| then 1 of the following endings

E----------------------------------------------------------------------------|
B----------------------------------------------------------------------------|
G----------------------------------------------------------------------------|
D-10-10-10-10-10-10-10-10-8-8-8-8-8-8-8-8-9-9-9-9-9-9-9-9-9-9-9-9-9-9-9-9----|
A-10-10-10-10-10-10-10-10-8-8-8-8-8-8-8-8-9-9-9-9-9-9-9-9-9-9-9-9-9-9-9-9----|
E-10-10-10-10-10-10-10-10-8-8-8-8-8-8-8-8-9-9-9-9-9-9-9-9-9-9-9-9-9-9-9-9----| only after 1st time

E--0----0----2----x--|
B--1----2----2----4--|
G--0----0----0----4--|
D--2----2----0----4--|
A--3----1----2----2--|
D--x----x----x----x--| after 2nd n 3rd times


Verse

E--7777-7777-7777-7777-7777-7777-7777-7777-7777-7777-8888-8888-7777-7777-7777-7777-|
B--8888-8888-7777-7777-8888-8888-7777-7777-8888-8888-8888-8888-8888-8888-7777-7777-|
G--9999-9999-8888-8888-9999-9999-8888-8888-9999-9999-9999-9999-7777-7777-8888-8888-|
D----------------------------------------------------------------------------------|
A----------------------------------------------------------------------------------|
D----------------------------------------------------------------------------------|


Chorus-don't know names of chords but numbered them wit lyrics :-D

      1  2  3  4  5  6  7  8
e--|--0--x--x--x--x--x--x--x--------
b--|--0--10-x--x--x--x--5--4--------
g--|--0--9--11-12-8--8--4--4--------
d--|--2--7--0--0--9--6--5--4--------
a--|--2--7--9--10-10-8--2--2--------
d--|--2--7--0--x--7--7--x--x--------

1             2            3           4      5           6         7   8
Just bring the spineless.  Show me it's real, wasting our last chance   to come away

1             2        3        4        5      6              7     8
Just break the silence.   Cos im drifting away, away from you, woooohooooo

Pre-Solo
E--------------------------------------------------------|
B--------------------------------------------------------|
G--------------------------------------------------------|
D--------------------------------------------------------|
A------------------2-2-2-2-2-2-2-2-1-1-1-1-1-1-1-1-------|
D--2-2-2-2-2-2-2-2---------------------------------------| all harmonics

Solo
E--------------------------------------------------------|
B-12--8--5--8--12--7--4--7--12--8--5--8--12--7--4--7-----|
G--------------------------------------------------------|
D--------------------------------------------------------|
A--------------------------------------------------------|
D--------------------------------------------------------| each note play 4 times v fast

E-------------------------------------------------|
B--12--8--5--1--13--7--4--0--12--8--3--4--7--12---|
G-------------------------------------------------|
D-------------------------------------------------|
A-------------------------------------------------|   x2
D-------------------------------------------------|

Verse

Chorus

End
E------------------------------------------------------------------------|
B------------------------------------------------------------------------|
G------------------------------------------------------------------------|
D------------------------------------------------------------------------|
A------------------------------------------------------------------------|
D---2-2-2-2-5-2-5/6-7-7-7-7-10-7-10-11-12-0-0-12-0-0-2-3-5-5-5-9-9-7-7---|

3 different endings

E--0----0----2----x--|
B--1----2----2----4--|
G--0----0----0----4--|
D--2----2----0----4--|
A--3----1----2----2--|
D--x----x----x----x--|

then
E--0----0----2-xxx--x--|
B--1----2----2-xxx--4--|
G--0----0----0-xxx--4--|
D--2----2----0-xxx--4--| 
A--3----1----2-xxx--2--|
D--x----x----x------x--|

lastly
E--0------0------2----x--|
B--1------2------2----4--|
G--0--2b--0--2b--0----4--|
D--2------2------0----4--|
A--3------1------2----2--|
D--x------x------x----x--|
            
Submit corrections

comments powered by Disqus
↑ Back to top | Muse Tabs for New Born. Lyrics for acoustic guitar and electric guitar. 1 Tablatures and chords are parodies/interpretations of the original songs. You may use it for private study, scholarship, research or language learning purposes only