» » »

Muse, New Born Tabs (ver.2)

Artists:  A B C D E F G H I J K L M N O P Q R S T U V W X Y Z # 

New Born Tabs (ver.2)

Muse Tabs
Rating:
0/5 (0 votes)
New Born lessons Tabs too difficult? Try these video lessons and learn fast
                new born
Muse
By aKKi and elliott

Riff 1 :  

E-|------7-------7-------7-------7---|-----7-------7-------7-------7---|
B-|----8---8---8---8---7---7---7---7-|---8---8---8---8---7---7---7---7-|
G-|--9-------9-------8-------8-------|-9-------9-------8-------8-------|
D-|----------------------------------|---------------------------------|
A-|----------------------------------|---------------------------------|
D-|----------------------------------|---------------------------------|

E-|------7-------7-------8-------8---|-----7-------7-------7-------7---|
B-|----8---8---8---8---8---8---8---8-|---8---8---8---8---7---7---7---7-|
G-|--9-------9-------9-------9-------|-7-------7-------8-------8-------|
D-|----------------------------------|---------------------------------|
A-|----------------------------------|---------------------------------|
D-|----------------------------------|---------------------------------|


Riff 2:

E-|------7-------7-------7-------7---|-----7-------7-------7-------7---|
B-|----8---8---8---8---7---7---7---7-|---8---8---8---8---7---7---7---7-|
G-|--9-------9-------8-------8-------|-9-------9-------8-------8-------|
D-|----------------------------------|---------------------------------|
A-|----------------------------------|---------------------------------|
D-|----------------------------------|---------------------------------|

E-|------7-------7-------8-------8---|-----7-------7---7---------------|
B-|----8---8---8---8---8---8---8---8-|---8---8---8---8-7---------------|
G-|--9-------9-------9-------9-------|-7-------7-------8---------------|
D-|----------------------------------|---------------------------------|
A-|----------------------------------|---------------------------------|
D-|----------------------------------|---------------------------------|


Riff 3:

E-|-----------------------------------------------------------------------|
B-|-----------------------------------------------------------------------|
G-|-----------------------------------------------------------------------|
D-|-----------------------------------------------------------------------|
A-|---------------------------------------------------------------2-2-2-2-|
D-|--2-2-2-2-5-2-5-6-7-7-7-7-10-7-10-11-12-0-0-12-0-0-3-4-5-5-5-5---------|

E-|--0-------------------------------|---------------------------------|
B-|--1-------------------------------|---------------------------------|
G-|--0--------------3----------------|--4--------------4---------------|
D-|--2--------------3----------------|--4--------------4---------------|
A-|--3--------------1----------------|--2--------------2---------------|
D-|----------------------------------|---------------------------------|

Riff 4: (actually played by the bass)

E-|----------------------------------|
B-|----------------------------------|
G-|----------------------------------|
D-|----------------------------------|
A-|------0-2-----0-2----0-2-----0-2--|
D-|--2-2-----2-2-----2-2----2-2------|



Riff 5:

E-|----------------------------------|----------------------------------|
B-|----------------------------------|----------1-1-1-1-----------------|
G-|----------4-4-4-4---------4-4-4-4-|----------0-0-0-0-4-4-4-4-4-4-4-4-|
D-|--2-2-2-2-4-4-4-4-2-2-2-2-4-4-4-4-|--2-2-2-2-2-2-2-2-4-4-4-4-4-4-4-4-|
A-|--2-2-2-2-2-2-2-2-2-2-2-2-2-2-2-2-|--2-2-2-2-3-3-3-3-2-2-2-2-2-2-2-2-|
D-|--2-2-2-2---------2-2-2-2---------|--2-2-2-2-------------------------|



Riff 6:

E-|--0-------0-------0---------------|---------------------------------|
B-|--0-------1-------3-------0-------|--1------------------------------|
G-|--0-------2-------2-------0-------|--0--------3------4-------4------|
D-|--2-------2-------0-------5-------|--2--------3------4-------4------|
A-|--2-------0---------------5-------|--3--------1------2-------2------|
D-|--2-----------------------5-------|---------------------------------|


Solo:

E-|-----------------------------------------------------------------------|
B-|--12-8-5-8-12-7-4-7-12-8-5-8-12-7-4-7-12-8-12-13-8-5-13-12-7-4------5--|
G-|-----------------------------------------------------------------------|
D-|-----------------------------------------------------------------------|
A-|-----------------------------------------------------------------------|
D-|-----------------------------------------------------------------------|

Structure:

Intro: Riff 1*2
Verse 1:Riff 1, Riff 2
Bridge 1: Riff 3 *3
Verse 2: Riff 4*2, Riff 5*2
Chorus 1: Riff 6*2
Solo
Verse 3: riff 5*2
Chorus 2: riff 6*2
Outro: Riff 3*3
            

comments powered by Disqus
↑ Back to top | Muse Tabs for New Born. Lyrics for acoustic guitar and electric guitar. Tablatures and chords are parodies/interpretations of the original songs. You may use it for private study, scholarship, research or language learning purposes only