» » »

Neutron Star Collision Tabs (ver.2)

Artists:  A B C D E F G H I J K L M N O P Q R S T U V W X Y Z # 

Neutron Star Collision Tabs (ver.2)

Muse
Rating:
0/5 (0 votes)

Hard to play? Try these video lessons and learn fast.
                
Basically saw another tab, tried to fix a few bits and play it how i heard it. This is 
first tab so easy on the comments.... and enjoy :D

Tuning: EADGBE (standard)

Intro:
e|------------------------------------------------------------------------|
B|------------------------------------------------------------------------|
G|------------------------6~----------------------------------------------|
D|------------------4--67-------------------------------------------------|
A|--------4--4-2-0--------------------------------------------------------|
E|-2--45------------------------------------------------------------------|

verse: these are the chords to play (in order)

    C#  F   F#  G#   (x2)    G#  F/A  A#m B#dim  C#   F    F#   G#
e|--4---x---x---x------------x----x----x---------4----x----x----x---------|
B|--6---1---2---4------------4----6----6----4----6----1----2----4---------|
G|--6---2---3---5------------5----5----6----5----6----2----3----5---------|
D|--6---3---4---6------------6----7----8----4----6----3----4----6---------|
A|--4---x---x---x------------x----x----x----3----4----x----x----x---------|
E|------1---2---4------------4----5----6--------------1----2----4---------|

Chorus: You can play the octave as well.
e|------------------------------------------------------------------------|
B|------------------------------------------------------------------------|
G|----------------------------------------------6-66----------------------|
D|------------------------------------------X4--6-66----------------------|
A|---------------------4444444-6-88888888-------4-44----------------------|
E|--2222222-4-5555555-----------------------------------------------------|

Solo: with vibrato
e|------------------------------------------------------------------------|
B|14--14--14--14--13--13------------------------------------------------14|
G|------------------------13--13-13/15--13-----------13-------------13----|
D|--------------------------------------------16--15------16----15--------|
A|------------------------------------------------------------------------|
E|------------------------------------------------------------------------|


e|------13----13h14p13------------------------14b-------------------------|
B|--16--------------------16--14--13--14--16------------------------------|
G|---------------------------------------------------13-------------------|
D|------------------------------------------------------------------------|
A|------------------------------------------------------------------------|
E|------------------------------------------------------------------------|

************************************

| /   slide up
| \   slide down
| h   hammer-on
| p   pull-off
| ~   vibrato
| +   harmonic
| x   Mute note
| b   Bend
| pb  Pre-bend
| br  Bend release
| pbr Pre-bend release
| brb Bend release bend
            
Hard to play? Try these video lessons and learn fast. | Correct




comments powered by Disqus
↑ Back to top | Tablatures and chords are parodies/interpretations of the original songs. You may use it for private study, scholarship, research or language learning purposes only