» » »

Muse, Nature Bass tabs (ver.2)

Artists:  A B C D E F G H I J K L M N O P Q R S T U V W X Y Z # 

Nature Bass tabs (ver.2)

Muse Tabs
 Rating:
4/5 (4 votes)
Nature lessons Tabs too difficult? Try these video lessons and learn fast
1
                (1)

Bass starts at 0:40

|NOTE| You can play the E|7 as A|2 if you want. 

G|-----------------------------------|A
D|-----------------------------------|
A|-----------------------------------|
E|2-2-22-2-2-22-2-2-3-3-33-3-3-33-3-3|x4

G|-----------------------------------|B
D|-----------------------------------|
A|--------2-2------------------------|
E|2-2-2-2-----3-3--------------------|x3

G|-----------------------------------|C
D------------------------------------|
A|--------2-2-2-2--------------------|
E|2-2-2-2----------------------------|X1

Guitar Break 

G|-----------------------------------|
D|-----------------------------------|
A|----3---3------1---1---------------|
E|5-5---5----3-3---3-----------------|x7

Repeat A, B, C, then halfway through the riff play :

G|-----------------------------------|
D|-----------------------------------|
A|----3---3------1---1---------------|
E|5-5---5----3-3---3-----------------| x4

And close with :

G|-----------------------------------|
D|-----------------------------------|
A|-----------------------------------|
E|55-55-55-55-6-6--------------------|
            
Submit corrections

comments powered by Disqus
↑ Back to top | Muse Bass for Nature. Lyrics for acoustic guitar and electric guitar. 1 Tablatures and chords are parodies/interpretations of the original songs. You may use it for private study, scholarship, research or language learning purposes only