» » »

Muse, Megalomania Bass tabs (ver.2)

Artists:  A B C D E F G H I J K L M N O P Q R S T U V W X Y Z # 

Megalomania Bass tabs (ver.2)

Muse Tabs
 Rating:
4/5 (4 votes)
Megalomania lessons Tabs too difficult? Try these video lessons and learn fast
                ------------------------------------------------------------------------
			     megalomania - muse
------------------------------------------------------------------------

Tuning: standard

Intro - played very lightly
G|------------------------------------------------------------------|
D|------------------------------------------------------------------|
A|-----2~------2~----------0~--2~------3~--2~--0~----------0~--2~---|
E|-0~------0~------0~--2~----------0~--------------3~--4~-----------|

pause
G|-------|
D|-------|
A|-------|
E|-0~----|

Verse 1
G|------------------------------------------------------------------|
D|-2--2-----2--2-----2--2-----2--2-----2--2-----2--2----------------|
A|------2-2------2-2------2-2------2-2------2-2------2-2------------|
E|------------------------------------------------------------------|

G|----------2--2-4-4------------------------------------------------|
D|-2--2-4-4----------2--2--------------------------------2--2-------|
A|------------------------3-3-2--2-0-0----------0--0-2-2------2-2---|
E|-------------------------------------3--3-4-4---------------------|

G|-------------------2--2-4-4---------------------------------------|
D|-2--2-----2--2-4-4----------2--2--------------------------------2~|
A|------2-2------------------------3-3-2--2-0-0----------0--0-2-2---|
E|----------------------------------------------3--3-4-4------------|

Pre-chorus 1
G|------------------------------------------------------------------|
D|------------------------------------------------------------------|
A|-555-55-2~--3--300-0----------------------------------------------|
E|------------------------------------------------------------------|

Chorus 1
G|------------------------------------------------------------------|
D|------------------------------------------------------------------|
A|-55555555-2222------33333333-3333-2222-00000000-22222222-2~-------|
E|---------------3333-----------------------------------------------|

Verse 2
G|------------------------------------------------------------------|
D|-2--2-----2--2-----2--2-----2--2-----2--2-----2--2----------------|
A|------2-2------2-2------2-2------2-2------2-2------2-2------------|
E|------------------------------------------------------------------|

G|----------2--2-4-4------------------------------------------------|
D|-2--2-4-4----------2--2--------------------------------2--2-------|
A|------------------------3-3-2--2-0-0----------0--0-2-2------2-2---|
E|-------------------------------------3--3-4-4---------------------|



G|-------------------2--2-4-4---------------------------------------|
D|-2--2-----2--2-4-4----------2--2------------------------2~--------|
A|------2-2--------------------------------------0--0-2-2-----------|
E|----------------------------------4-4-3--3-4-4--------------------|

Pre-chorus 2
G|------------------------------------------------------------------|
D|------------------------------------------------------------------|
A|-555-55-2~--3333-0000---------------------------------------------|
E|------------------------------------------------------------------|

Chorus 2
G|------------------------------------------------------------------|
D|------------------------------------------------------------------|
A|-55555555-2222------33333333-3333-2222-00000000-22222222-22222222-|
E|---------------3333-----------------------------------------------|

outro
G|------------------|
D|-4-4--------------|
A|-----4-4-55555555-|
E|------------------| x4

G|------------------|
D|-4~-----4~--------|
A|------------------|
E|------------------|

I’m pretty sure this is right, enjoy

| /  slide up
| \  slide down
| h  hammer-on
| p  pull-off
| ~  vibrato
| +  harmonic
| x  Mute note
========================================================================
            
Submit corrections

comments powered by Disqus
↑ Back to top | Muse Bass for Megalomania. Lyrics for acoustic guitar and electric guitar. Tablatures and chords are parodies/interpretations of the original songs. You may use it for private study, scholarship, research or language learning purposes only