» » »

Muse, Map Of The Problematique Tabs (ver.2)

Artists:  A B C D E F G H I J K L M N O P Q R S T U V W X Y Z # 

Map Of The Problematique Tabs (ver.2)

Muse Tabs
 Rating:
4/5 (4 votes)
Map Of The Problematique lessons Tabs too difficult? Try these video lessons and learn fast
                -------------------------------------------------------------------------------
                     MAP OF THE PROBLEMATIQUE - Muse
-------------------------------------------------------------------------------

Thanks to everyone who's posted on here so far with tabs for this song, I've
pretty much just put them all together and added a couple of things to it. Any

Work out the timing from the song


Tuning: Drop C (CADGBE)

e|---------------------------------------------------------------------------|
B|---------------------------------------------------------------------------|
G|---------------------------------------------------------------------------|
D|---------------------------------------------------------------------------|  x 4
A|---15-15---15-15----15-----------------------------------------------------|
C|-0-------0-------0---------------------------------------------------------|

e|---------------------------------------------------------------------------|
B|---------------------------------------------------------------------------|
G|---------------------------------------------------------------------------|   The notes on the A
D|---------------------------------------------------------------------------|   string could be played
A|---15-15---15-15---15----13-13----13-13----13------------------------------|   an octave lower instead.
C|-0-------0-------0----15-------15-------15---------------------------------|   I'm not sure which is right.

e|---------------------------------------------------------------------------|
B|---------------------------------------------------------------------------|
G|---------------------------------------------------------------------------|
D|---------------------------------------------------------------------------|
A|----18-18----18-18----18----15-15----15-15----15---------------------------|
C|-20-------20-------20----17-------17-------17------------------------------|

e|---------------------------------------------------------------------------|
B|---------------------------------------------------------------------------|
G|--8-8-8-8-8-8-8-8-8-8-8-8-8-8-8-8-8-8-8-8-8-8-8-8-8-8-8-8-8-8-8------------|
D|---------------------------------------------------------------------------|   This is (incredibly)
A|---------------------------------------------------------------------------|   played live using a 
C|---------------------------------------------------------------------------|   bass

e|---------------------------------------------------------------------------|
B|---------------------------------------------------------------------------|
G|--8-8-8-8-8-7-5-7-7-7-7-7-5-3-5-5-5-5-5-3-1-1-1-1-1-1-0--------------------|
D|---------------------------------------------------------------------------|  x 2
A|---------------------------------------------------------------------------|
C|---------------------------------------------------------------------------|

e|---------------------------------------------------------------------------|
B|---------------------------------------------------------------------------|
G|--5----8----13----10-------------------------------------------------------|
D|--5----8----13----10-------------------------------------------------------|
A|--3----6----11----8--------------------------------------------------------|
C|---------------------------------------------------------------------------|

These are the chords that are used right the way through the song, just play
them as necessary

You can also play the 2nd two chords on the next 3 strings as 6,8,9 and 3,5,6,
this is better for more advanced players. Beginners who are more confident with
the standard power chord position should stick to the one I've tabbed out. 


e|---------------------------------------------------------------------------|
B|---------------------------------------------------------------------------|
G|---------------------------------------------------------------------------|
D|---------------------------------------------------------------------------|
A|---------------------------------------------------------------------------|
C|-0-0-12-0-12-0-0-0-12-0-12-0-0-0-12-0--------------------------------------|

I haven't seen it tabbed anywhere else, so here's the keyboard bit too

e|---------------------------------------------------------------------------|
B|-------13------------------------------------------------------------------|
G|-----------------15-------13-12--------------------------------------------|
D|-12-13-----12-13----10-12--------------------------------------------------|
A|---------------------------------------------------------------------------|
C|---------------------------------------------------------------------------|


===============================================================================


I think that's pretty much everything, hope you like it.

Enjoy!
            
Submit corrections

comments powered by Disqus
↑ Back to top | Muse Tabs for Map Of The Problematique. Lyrics for acoustic guitar and electric guitar. Tablatures and chords are parodies/interpretations of the original songs. You may use it for private study, scholarship, research or language learning purposes only