» » »

Muse, Jimmy Kane Bass tabs (ver.5)

Artists:  A B C D E F G H I J K L M N O P Q R S T U V W X Y Z # 

Jimmy Kane Bass tabs (ver.5)

Muse Tabs
Rating:
0/5 (0 votes)
Jimmy Kane lessons Tabs too difficult? Try these video lessons and learn fast
                (think it sounds best played in slap bass..)

main riff/into

G|-----------------------|
D|------9-7----------7---|
A|----------9-7--7h9-----| x 3, and on the 4th finish with..
E|--7-7------------------|

G|-------------------------------|
D|------9-7----------7-----9-7---|
A|----------9-7--7h9-------------| and repeat this pattern lots until..
E|--7-7----------------7-7-------|

pre-chorus

G|--------------------------------------|
D|--------------------------------------|
A|--------------------------------------|
E|--0-0-------5-5-------0-0-------5-5---|

chorus

G|-------------------------------------|
D|-------------------------------------|
A|------7-6-5--------------------------|
E|--0-0-------5-6-7--5-5-5-5-5--3-0-3--|

ellie :)
            
Submit corrections

comments powered by Disqus
↑ Back to top | Muse Bass for Jimmy Kane. Lyrics for acoustic guitar and electric guitar. Tablatures and chords are parodies/interpretations of the original songs. You may use it for private study, scholarship, research or language learning purposes only