» » »

Jimmy Kane Bass tabs (ver.1)

Artists:  A B C D E F G H I J K L M N O P Q R S T U V W X Y Z # 

Jimmy Kane Bass tabs (ver.1)

Muse
Rating:
0/5 (0 votes)
Tabs too difficult? Try these video lessons and learn fast.
                [Artist] _Muse_
[Song] _Jimmy Kane_
[Album] _Uno B-Side_
[Bassist] _Chris Wolstenholme_

[Tuning] _EADG_


__KEY__

h = Hammer-on

Intro and Verse 1 (0:11 - 0:56)

G|---------------------|     |---------|
D|-----9-7-----------7-| x 3 |-----9-7-| 
A|---------9-7-7h8h9---|     |---------|
E|-7-7-----------------|     |-7-7-----|

Prechorus (0:57 - 1:04)

G|--------------------|
D|--------------------|
A|--------------------|
E|-0-0--5-5--0-0--5-5-|

Chorus (1:06 - 1:32)

G|---------------------------------|
D|-----2-1-0-----------------------|
A|-----------0-----0-0-0-0-0-------|
E|-0-0---------3-4-----------3-0-3-|

---> Intro (1:33 - 2:17)

---> Prechorus (2:18 - 2:25)

---> Chorus (2:27 - 2:54)

Bridge (2:54 - 3:03)

G|-----------------------------------|
D|-----------------------------------|
A|-----------------------------------|
E|-7-7-7-7-7-7-7-7-7-7-7-7-7-7-7-7-7-|

---> Prechorus (3:03 - 3:12)

---> Chorus (3:12 - 3:22)

End with: (3:22)

G|-----||
D|-----||
A|-----||
E|-0-0-||
            
Tabs too difficult? Try these video lessons and learn fast.


comments powered by Disqus
↑ Back to top | Tablatures and chords are parodies/interpretations of the original songs. You may use it for private study, scholarship, research or language learning purposes only