» » »

Muse, Hate This And Ill Love You Bass tabs (ver.4)

Artists:  A B C D E F G H I J K L M N O P Q R S T U V W X Y Z # 

Hate This And Ill Love You Bass tabs (ver.4)

Muse Tabs
 Rating:
4/5 (4 votes)
Hate This And Ill Love You lessons Tabs too difficult? Try these video lessons and learn fast
1
                Verse: Everything I had...

G|--------|---------|
D|---5-4--|--7-5-0--|
A|--------|---------|
E|--------|---------|

Chorus: Like I was born...

G|---------|---------|---------|---------|---------|---------|--------|
D|---------|---------|---------|---------|---------|---------|--------|
A|7-7-77--7/2-2-22--2|---------|---------|---------|---------|2~------|
E|---------|---------|2-2-22--2|2-2-22--2|0-0-00--0|2-2-22--2|--------|

Verse: You left us...

G|--------|---------|
D|-7-5-4--|--7-5-0--|
A|--------|---------|
E|--------|---------|x2

Chorus: Cause I was born...

G|---------|---------|---------|---------|---------|---------|---------|
D|---------|---------|---------|---------|---------|---------|---------|
A|7-7-77--7\2-2-22--2|---------|---------|---------|---------|2-2-22--2|
E|---------|---------|2-2-22--2|2-2-22--2|0-0-00--0|2-2-22--2|---------|

...And I'm getting strong   

G|---------|---------|---------|---------|---------|---------|---------|---------|
D|---------|---------|---------|---------|---------|---------|---------|---------|
A|---------|---------|---------|---------|---------|---------|---------|2~-------|
E|5-5-55--5|4-4-44--4|3-3-33--3|0-0-00--0|3-3-33--3|0-0-00--0|2-2-22--2|---------|

You led me on...

G|---------|---------|
D|9-7-5-4--|--7-5\0--|
A|---------|---------|
E|---------|---------|

G|--------|---------|
D|-7-5-4--|--7-5-0--|
A|--------|---------|
E|--------|---------| x2

Chorus:

G|---------|---------|---------|---------|---------|---------|---------|
D|---------|---------|---------|---------|---------|---------|---------|
A|7-7-77--7\2-2-22--2|---------|---------|---------|---------|2-2-22--2|
E|---------|---------|2-2-22--2|2-2-22--2|0-0-00--0|2-2-22--2|---------|

G|---------|---------|---------|---------|---------|---------|---------|
D|---------|---------|---------|---------|---------|---------|---------|
A|---------|---------|---------|---------|---------|---------|---------|
E|5-5-55--5|4-4-44--4|3-3-33--3|0-0-00--0|3-3-33--3|0-0-00--0|2-2-22--2|

G|---------|---------|---------|---------|---------|---------|---------|---------|---------|
D|---------|---------|---------|---------|---------|---------|---------|---------|---------|
A|2-2-22--2|---------|---------|---------|---------|---------|5-5-55--5|5---5----|---------|
E|---------|5-5-55--5|3-3-33--3|2-2-22--2|5-5-55--5|3-3-33--3|---------|---------|5~-------|
            
Submit corrections

comments powered by Disqus
↑ Back to top | Muse Bass for Hate This And Ill Love You. Lyrics for acoustic guitar and electric guitar. 1 Tablatures and chords are parodies/interpretations of the original songs. You may use it for private study, scholarship, research or language learning purposes only