» » »

Muse, Hate This And Ill Love You Tabs (ver.1)

Artists:  A B C D E F G H I J K L M N O P Q R S T U V W X Y Z # 

Hate This And Ill Love You Tabs (ver.1)

Muse Tabs
Rating:
0/5 (0 votes)
Hate This And Ill Love You lessons Tabs too difficult? Try these video lessons and learn fast
                
Muse - Hate  this and i'll love you

It starts on piano but is based around what is played in the verse so
just play aroun and you'll find it otherwise it's been tabbed out at the end

E-------------------------------------------------------------------
B-------2-------------------3------------------------3--------------
G-----2---2--------------3-----3-------------------2----2-----------
D---2-------2----------0-------------------------0----------2-------
A-0-----------------------------------------------------------------
E--------------------3-------------------------2--------------------
         A               Gm                        Dsoo     Dsoo = D something or other

A      Gm                  D
Oh    i  am  growing   tired 
A      Gm                  D
of  allowing  you  to  steal
A      Gm     D
everything  i  have
A        Gm            D
you're  making me feel

CHORUS

E-0---------2----------2---
B-0---------3----------2---
G-0---------4----------2---
D-2---------4----------4----
A-2---------2----------4----
E-0---------------------2----
   Em      Bm       F#m

Like

Em       Bm        F#m
I   was  born  to  service   you 

       Em    F#m                  F#m
But  i  am  growing  by the  hour

ADD-ONN FOR 2ND CHORUS

E--2------2------0------0------
B--3------3------0------0------
G--4------4------4------4------
D--4------4------4------3------  repeat this twice against the words underneath
A--2------0----------------------
E----------------4------3------
   1       2      3       4

1        2                3           4
Hour,  im  getting   stronger  every  day

Em      G
Yeah
Em       F#m
yeah

Then pick out add on as he goes  "Ooooooh"

SOLO

E-----------------------------------          b=bend
B-------2s3-------6b--6b--6b--------          s=slide
G--1b2--2s3---------7---7---7-7-7-7-
D------------4s7--------------------   Repeat this 3 times then
A-----------------------------------
E-----------------------------------

E-----------------------------------
B-------2s3-------------------------
G--1b2--2s3-------6b--6b--6b--6b----
D------------4s7----7---7---7---7-7-
A-----------------------------------
E-----------------------------------

And then the chorus and add-on til the end and the piano again. 

PIANO BEGINNING

E--------5---------5-6---10----8--6-5--2--------
B-------5-------8------------------------3------
D--------------------------------------------4--   don't use a plectrum.the
A-----------------------------------------------   scr*ping noise of the
E--5-----------------3---------------2-----------   muted strings is 'orrible

E--------5--------5-6--5--3--3--5-
B-------5------8------------------
G-----6---------------------------
D---------------------------------  Isn't it beautiful
A---------------------------------
E--5----------------3-----0-----2-


Muse f#####g rule and this is one of the best on the album.
            

comments powered by Disqus
↑ Back to top | Muse Tabs for Hate This And Ill Love You. Lyrics for acoustic guitar and electric guitar. Tablatures and chords are parodies/interpretations of the original songs. You may use it for private study, scholarship, research or language learning purposes only