» » »

Muse, Dead Star Bass tabs (ver.5)

Artists:  A B C D E F G H I J K L M N O P Q R S T U V W X Y Z # 

Dead Star Bass tabs (ver.5)

Muse Tabs
 Rating:
4/5 (4 votes)
Dead Star lessons Tabs too difficult? Try these video lessons and learn fast
                --------------------------------------------------------------------
			     Dead Star - Muse
--------------------------------------------------------------------


Tuning: Drop-D

| /  slide up
| \  slide down
| h  hammer-on
| p  pull-off
| ~  vibrato
| +  harmonic
| x  Mute note
| r  Let ring
|() Optional Note

GUITAR RIFF INTRO x2

(MAIN RIFF) x4
G|-----------------------------------|
D|-----------------------------------|
A|-5------5-------5----------0-3-4---|
D|---0-0-----0-0-----0-3-4-5---------|

(VERSE) X4
G|-----------------------|
D|-----------------------|
A|-----------------------|
D|-0-0-0-0-12-0-0-0-0-0--|

G|-----------------------|
D|-----------------------|
A|-----------------------|
D|-0-0-0-0-12-0-0-0-0-0--|

G|------------------------------------|
D|------------------------------------|
A|--------------------5---------0-3-4-| On the fourth time around, 
D|-0000-00-00-0000-00---0-3-4-5-------| skip this and go into Chorus

(CHORUS) (Sixteenth notes)
G|-----------------------------------|-----------------------------------|
D|-----------------------------------|-----------------------------------|
A|-----------------------------------|-----------------------------------|
D|-4444444444444444-5555555555555555-|-8888888888888888-3333333333333333-|

G|-----------------------------------|-----------------------------------|
D|-----------------------------------|-----------------------------------|
A|-----------------------------------|-----------------------------------|
D|-7777777777777777-8888888888888888-|-3333333333333333-7777777777777777-|

MAIN RIFF X4

VERSE X4

MAIN RIFF X4

(BRIDGE) X4
G|------------------|
D|------------------|
A|------------------|
D|-0000000000000000-|

(DURING GUITAR RIFF)*
G|-------------------------|
D|-------------------------|
A|-------------------------|
D|-0r-------------(0/12\0)-|

MAIN RIFF X2

(OUTRO) x4
G|-------------------------------|
D|-------------------------------|
A|-5------5-------5-------(5555)-|
D|---0-0-----0-0-----0-0---------|

(END)
G|----|
D|----|
A|----|
D|-0r-|
 
Guitar Riff x2
Main Riff x4
Verse X4
Chorus
Main Riff x4
Verse x4
Main Riff x4
Bridge x4
Guitar Riff x2
Main Riff x2
Outro X4
End

===============================================================================
I listened to this song a bunch of times to figure this out, and it sounds about
right. If you have any corrections please PM them to me. I hope this tab works
for you. This is an awesome song, Muse is one of the greatest bands ever. I tabbed
this song because there wasn't a Bass Version for this song and it's great song to
play. The Harmonics with the Guitar make this a very cool sounding song. Muse 4 Ever! 
            
Submit corrections

comments powered by Disqus
↑ Back to top | Muse Bass for Dead Star. Lyrics for acoustic guitar and electric guitar. Tablatures and chords are parodies/interpretations of the original songs. You may use it for private study, scholarship, research or language learning purposes only