» » »

Muse, Dead Star Tabs (ver.2)

Artists:  A B C D E F G H I J K L M N O P Q R S T U V W X Y Z # 

Dead Star Tabs (ver.2)

Muse Tabs
 Rating:
4/5 (4 votes)
Dead Star lessons Tabs too difficult? Try these video lessons and learn fast
                deadstar is one of muses more heavier songs, it also has no good tabs so i did it myself, once you know how to play it, its quite easy.

intro
e:-----------------------------------------------------
B:-9-----9-----9-------------9-----9-----9-------------
G:-7-----7-----7-------------7-----7-----7-------------
D:-0-0-0-0-0-0-0-0-0---------0-0-0-0-0-0-0-0-0---------
A:-----------------------------------------------------
D:-------------------3-3-3-3-------------------3-3-3-3- 1st set or harmonics just 
                    |-------|                 |-------| befor 3rd fret and 2nd just 
                    harmonics                 harmonics after
main riff
e:------------------------------------------------------
B:------------------------------------------------------
G:------------------------------------------------------
D:------------------------------------------------------
A:-12-0-0--12-0-0--12-0-5-6-7-0-10-11-------------------
D:-12-0-0--12-0-0--12-0-5-6-7-0-10-11------------------- x2

main riff 2
e:-----------------------------------------------------
B:-9-----9-----9-------------9-----9-----9-------------
G:-7-----7-----7-------------7-----7-----7-------------
D:-0-0-0-0-0-0-0-0-0---------0-0-0-0-0-0-0-0-0---------
A:----------------------------------------------------- 
D:-------------------3-3-3-3-------------------3-3-3-3- both harmonics just before 
                    |-------|                 |-------| 3rd fret
                    harmonics                 harmonics

one guitar in verse
e:---------------------------------------------------------
B:---------------------------------------------------------
G:-10--------------10-------------10-------------10--------
D:----12----12--------11----11-------10----10-------9----9-
A:-------12--------------12-------------12------------11---
D:---------------------------------------------------------

e:---------------------------------------------------------
B:---------------------------------------------------------
G:-9----------7----------7---------7-----------------------
D:---8----8-----7---7------7---7-----7---7-----------------
A:-----10---------9----------8---------9-------------------
D:---------------------------------------------------------

e:---------------------------------------------------------
B:---------------------------------------------------------
G:-10-------------12-------------12------------12----------
D:----12----12-------12----12-------12----12------12----12-
A:-------12-------------13-------------14------------13----
D:---------------------------------------------------------

e:--------------------------------------------------------
B:--------------------------------------------------------
G:-10------------10---------------------------------------
D:----12----12------11----11------------------------------
A:-------12------------12---------------------------------
D:--------------------------------------------------------
  
another guitar in verse                  
                        palm mute
 ............................................................
e:--------------------------------------------------------------
B:--------------------------------------------------------------
G:--------------------------------------------------------------
D:--------------------------------------------------------------
A:-12-0-0-0--12-0-0-0--12-0-0----12-0-0-0---0-0---0-0---0-0-0-0-
D:-12-0-0-0--12-0-0-0--12-0-0----12-0-0-0---0-0---0-0---0-0-0-0-
                              
                    palm mute
 .....................
e:-----------------------------------------------------
B:-----------------------------------------------------
G:-----------------------------------------------------
D:-----------------------------------------------------
A:-0-5-6-7-0-10-11-12----------------------------------
D:-0-5-6-7-0-10-11-12---------------------------------- and so on

chorus
e:----------------------------------------------------
B:-(3)-----(2)--(3)-----(2)---------------------------
G:--3-------2----3-------2----------------------------
D:--3---3---2----3---3---2----------------------------
A:--1---3---0----1---3---0----------------------------
D:------3------------3--------------------------------



solo
e:-----------------------------------------------------
B:-----------------------------------------------------
G:-----------------------------------------------------
D:-----------------------------------------------------
A:-0h12p0--0h13p0--0h14p0--0h15p0----------------------
D:-----------------------------------------------------

play each note 16 times very quickly with slite bend down and release and so on, playing with an octave pedal bout every 2 notes 4 the higher sound and playing another od note every now and again.

then

e:-----------------------------------------------------
B:-----------------------------------------------------
G:-----------------------------------------------------
D:-----------------------------------------------------
A:-----------------------------------------------------
D:-12-0-0--12-0-0--12-0-5-6-7-1-10-11------------------ x2
            
Submit corrections

comments powered by Disqus
↑ Back to top | Muse Tabs for Dead Star. Lyrics for acoustic guitar and electric guitar. Tablatures and chords are parodies/interpretations of the original songs. You may use it for private study, scholarship, research or language learning purposes only