>
 >
Dead Star 3

Dead Star 3 Guitar Tabs

Muse - Dead Star 3 chords, tabs, tablatures, lyrics

Guitar lessons | Add/correct | Request | Top 50 tabs Artists:  A B C D E F G H I J K L M N O P Q R S T U V W X Y Z 0-9

Dead Star 3 Guitar Tabs – Muse

CD, Sheet music, Poster

Do you like Dead Star 3? Share with your friends now
Bass TabsBass Tabs v2Bass Tabs v3Bass Tabs v4Bass Tabs v5ChordsTabsTabs v2Tabs v3Tabs v4Tabs v5Tabs v6Tabs v7Ukulele
Muse-Dead Star


Note:This is the live version off Hulabaloo, NOT the single.

Intro
e|------------|----------------|
B|------------|-3--------------|
G|-7----------|-X-(x10)--------|
D|-X-(x48)----|-0------------0-|
A|-5----------|---------3\15/0-|
D|------------|---------3\15/0-|

Main Riff
e|-------------------------------|
B|-------------------------------|
G|-------------------------------|
D|-------------------------------|x4
A|-5---0--5---0--5---------0-3-4-|
D|---0-0----0-0----0-5-6-7-0-----|

    1/4                                                       1/4
e|-------------------------------| x3 On the 4th time play |-------------------------------|
B|-10b---------------------------|                         |-10b---------------------------|
G|-10b---------------------------|                         |-10b---------------------------|
D|-------------------------------|                         |-------------------------------|
A|--------5---0--5---------0-3-4-|                         |--------5---0--5---------0-0-0-|
D|------0---0-0----0-5-6-7-0-----|                         |------0---0-0----0-5-6-7-0-0-0-|

Verse 1/2
e|--------------------------------|---------------------------------|
B|----6-----6-----6-----6-----6---|-6---6-----6-----6-------6-----6-|
G|-7----7-----7-----7-----7-----7-|---7---7-----7-----7---6---6-----|
D|-7------7-----7-----7-----7-----|---------7-----7-----7-------7---|
A|-5------------------------------|---------------------------------|
D|-0------------------------------|---------------------------------|

e|---------------------------------|---------------------------------|
B|-----6-------6-------6-------6---|-----6-------6-------6-------6---|
G|---5---5---5---5---5---5---5---5-|---4---4---4---4---4---4---4---4-|
D|-7-------7-------7-------7-------|-6-------6-------6-------6-------|
A|---------------------------------|---------------------------------|
D|---------------------------------|---------------------------------|

e|-----------------------------0---|---------------------------------|
B|-----5-------5-------5-----------|-----3-------3-------3-------3---|
G|---3---3---3---3---3---3-0-3---3-|---2---2---2---2---2---2---2---2-|
D|-5-------5-------5---------------|-4-------4-------4-------4-------|
A|---------------------------------|---------------------------------|
D|---------------------------------|---------------------------------|

e|-1-------------------------1-----|---------------------------------|
B|-3-----------------------3-----2-|-----3-------3-------3-----------|
G|-2-----------------------------3-|---2---2---2---2---2---2---2-----|
D|-3---------------------------3---|-4-------4-------4-------4---0-0-|
A|---------------------------------|---------------------------------|
D|---------------------------------|---------------------------------|

e|---------------------------------|---------------------------------|
B|-----6-------6-------6-------6---|-----8-------8-------8-------8---|
G|---7---7---7---7---7---7---7---7-|---7---7---7---7---7---7---7---7-|
D|-7-------7-------7-------7-------|-8-------8-------8-------8-------|
A|---------------------------------|---------------------------------|
D|---------------------------------|---------------------------------|

e|---------------------------------|---------------------------------|
B|-----8-------8-------8-------8---|-----8-------8-------8-------8---|
G|---7---7---7---7---7---7---7---7-|---7---7---7---7---7---7---7---7-|
D|-9-------9-------9-------9-------|-8-------8-------8-------8-------|
A|---------------------------------|---------------------------------|
D|---------------------------------|---------------------------------|

e|---------------------------------|---------------------------------|
B|-----8-------8-------8-------8---|-----7-------7-------7-------7---|
G|---6---6---6---6---6---6---6---6-|---5---5---5---5---5---5---5---5-|
D|-8-------8-------8-------8-------|-7-------7-------7-------7-------|
A|---------------------------------|---------------------------------|
D|---------------------------------|---------------------------------|

e|---------------------------------|-----3--------3-------------------|
B|-----7-------7-----7-------------|--------------3-------------------|
G|---5---5---5---5-----5-----------|---3---3---3--3-------------------|
D|-7-------7-------7-----7\\\\\\\5-|-5-------5----5-0-0-0-0-0-0-0-0-0-|
A|---------------------------------|----------------0-0-0-0-0-0-0-0-0-|
D|---------------------------------|------------------0-0-0-0-0-0-0-0-|

Chorus
e|-------------------------------|--------------------------------|
B|-*-----------------------------|--------------------------------|
G|-101010101010101010101010------|-6--6-6-6-6-6-6-5-5-5-5-5-------|
D|-8-8-8-8-8-8-8-8-8-8-8-8-0-0-3-|-3--3-3-3-3-3-3-3-3-3-3-3-0-0-0-|
A|-8-8-8-8-8-8-8-8-8-8-8-8-0-0-3-|-3--3-3-3-3-3-3-3-3-3-3-3-0-0-0-|
D|-8-8-8-8-8-8-8-8-8-8-8-8-----3-|-3--3-3-3-3-3-3-3-3-3-3-3-------|
*All 10

e|-------------------------------|--------------------------------|
B|-------------------------------|--------------------------------|
G|-6-6-6-6-6-6-6-6-6-6-6-6-6-6-6-|-7-7-7-7-7-7-7------------------|
D|-7-7-7-7-7-7-7-7-7-7-7-7-7-7-7-|-8-8-8-8-8-8-8------------------|
A|-7-7-7-7-7-7-7-7-7-7-7-7-7-7-7-|-8-8-8-8-8-8-8------------------|
D|-7-7-7-7-7-7-7-7-7-7-7-7-7-7-7-|-8-8-8-8-8-8-8-\\\\\\\\\\\\22---|

e|---------------------------------|---------------------------|
B|-6-6-6-6-6-6-6-6-5-5-5-5-5-------|---------------------------|
G|-5-5-5-5-5-5-5-5-5-5-5-5-5-------|-6--6--6--6-6-6--6--6--6-6-|
D|-3-3-3-3-3-3-3-3-3-3-3-3-3-0-0-0-|-7--7--7--7-7-7--7--7--7-7-|
A|-3-3-3-3-3-3-3-3-3-3-3-3-3-0-0-0-|-7--7--7--7-7-7--7--7--7-7-|
D|-3-3-3-3-3-3-3-3-3-3-3-3-3-------|-7--7--7--7-7-7--7--7--7-7-|

Play Main riff x4

Verse 2 (same as verse 1)

Chorus (same as first chorus)

Solo
e|-------------------------------|-----------------------------------|
B|-------------------------------|------------------0-----0-----0----|
G|-------------------------------|------------------0-----0-----0----|
D|-------------------------------|------------------0-----0-----0----|
A|-5------5------5-----------3-4-|-5-----5-----5---------------------|
D|---0-0----0-0----0-5-6-7-0-----|---0-0---0-0---0-----0-----0-----0-|
PM    . .    . .      . . . 

He uses some sort of effect on this part, not to sure which.
e|----------------------------------------------------------------------------|
B|----------------------------------------------------------------------------|
G|----------------------------------------------------------------------------|
D|-12-0-12-0-12-0-12-0-12-0-12-0-12-0-12-0-12-0-12-0-12-0-12-0-12-0-12-0-12-0-|
A|----------------------------------------------------------------------------|
D|----------------------------------------------------------------------------|

e|----------------------------------------------------------------------------|
B|----------------------------------------------------------------------------|
G|----------------------------------------------------------------------------|
D|-13-0-13-0-13-0-13-0-13-0-13-0-13-0-13-0-13-0-13-0-13-0-13-0-13-0-13-0-13-0-|
A|----------------------------------------------------------------------------|
D|----------------------------------------------------------------------------|

e|----------------------------------------------------------------------------|
B|----------------------------------------------------------------------------|
G|----------------------------------------------------------------------------|
D|-14-0-14-0-14-0-14-0-14-0-14-0-14-0-14-0-14-0-14-0-14-0-14-0-14-0-14-0-14-0-|
A|----------------------------------------------------------------------------|
D|----------------------------------------------------------------------------|

e|----------------------------------------------------------------------------|
B|----------------------------------------------------------------------------|
G|----------------------------------------------------------------------------|
D|-15-0-15-0-15-0-15-0-15-0-15-0-15-0-15-0-15-0-15-0-15---0---0---0---0---0---|
A|--------------------------------------------------------0---0---0---0---0---|
D|--------------------------------------------------------0---0---0---0---0---|

Outro
e|-------------------------------|
B|-------------------------------|
G|-------------------------------|
D|-------------------------------|
A|-5------5------5---------0-3-4-|
D|---0-0----0-0----0-5-6-7-0-----|

                                  1/4
e|------------------------------|------------------------------|
B|--------------------------10--|-10b--------------------------|
G|--------------------------10--|-10b--------------------------|
D|------------------------------|------------------------------|
A|-5------5------5-------0------|-------5---0--5---------0-3-4-|
D|---0-0----0-0----0-5-6--------|-----0---0-0----0-5-6-7-0-----|

   1/4                             1/4
e|-------------------------------|-------------------------------|
B|-10b---------------------------|-10b---------------------------|
G|-10b---------------------------|-10b---------------------------|
D|-------------------------------|-------------------------------|
A|--------5---0--5---------0-3-4-|--------5---0--5---------0-3-4-|
D|------0---0-0----0-5-6-7-0-----|------0---0-0----0-5-6-7-0-----|

   1/4
e|------------------------------|---------------------------------|
B|-5b---------------------------|-12--12---12---------------------|
G|-5b---------------------------|-11--11---11---------------------|
D|------------------------------|-11--11---11---------------------|
A|-------5------5---0-0-0-0-0-0-|-----------------5---------0-3-4-|
D|-----0---0-0----0-0-0-0-0-0-0-|--------0----0-0---0-5-6-7-0-----|

e|---------------------------------|---------|--------------------|
B|---------------------------------|---------|--------------------|
G|----------7-7-7------------------|---------|--------------------|
D|----------X-X-X------------------|-0-------|--------------------|
A|-5--------5-5-5--5---------0-3-4-|-0-------|--------------------|
D|---0-0--0----------0-5-6-7-0-----|-0-------|-10\\\\\\\\\\\\\\\\-|





Comments


Popular Muse tabs & chords
Host Bass Tabs
Knights Of Cydonia Bass Tabs
Assassin Chords
Explorers 1 Chords
Madness 5 Chords
Map Of The Problematique Chords
Close Encounters Tabs
Knights Of Cydonia 3 Tabs
Map Of The Problematique 5 Tabs
New Born Studio Edition Tabs


Song lyrics



↑ Back to top | Tablatures and chords are parodies/interpretations of the original songs. You may use it for private study, scholarship, research or language learning purposes only
© 2014 AZChords.com Contact us | Privacy policy | DMCA | Add/correct tabs | Request tabs | Top 50 tabs