» » »

Butterflies And Hurricanes Bass tabs (ver.6)

Artists:  A B C D E F G H I J K L M N O P Q R S T U V W X Y Z # 

Butterflies And Hurricanes Bass tabs (ver.6)

Muse
Rating:
0/5 (0 votes)

Hard to play? Try these video lessons and learn fast.
                (Live)
This is the Butterflies and Hurricanes Pre-Riff played at glastonbury 

Have fun

Duration Legend
---------------
W - whole
H - half
Q - quarter
E - 8th
S - 16th

    H        Q    E   S  S     E   E  Q    H
G||------------------------|------------------------|
D||------------------------|------------------------|
A||-------------------x--x-|--17--17----------------|
E||------------------------|------------------------|


     H        Q    E   S  S     E   E  Q    H
G||-------------------------|------------------------|
D||-------------------------|------------------------|
A||--------------------x--x-|--17--17----------------|
E||-------------------------|------------------------|


      E   E   E   E  E  E  E  E
G||------------------------------|
D||------------------------------|
A||--12--12--10--10--8--8--7--7--|
E||------------------------------|


     E   E  E  E  E  E  E  E    E  E  E  E  E  E  E  E
G||--------------------------|--------------------------|
D||--------------------------|--------------------------|   x3
A||--5--5-----5--7--7--8--0--|--------------4--4--7--0--|
E||--------------------------|--5--5-----6--------------|


     E  E  E  E  E  E  E  E      E   E   E   E  E  E  E  E
G||--------------------------|------------------------------|
D||--------------------------|------------------------------|
A||--5--5-----5--7--7--8--0--|--12--12--10--10--8--8--7--7--|
E||--------------------------|------------------------------|


     E   E  E  E  E  E  E  E    E  E  E  E  E  E  E  E
G||--------------------------|--------------------------|
D||-----------------------7--|-----------------------5--|   x3
A||--5--5-----5--7--7--8-----|--------------4--4--7-----|
E||--------------------------|--5--5-----6--------------|


     E  E  E  E  E  E  E  E      E   E   E   E  E  E  E  E
G||--------------------------|------------------------------|
D||--------------------------|------------------------------|
A||--5--5-----5--7--7--8--7--|--12--12--10--10--8--8--7--7--|
E||--------------------------|------------------------------|


     E   E  E  E  E  E  E  E    E  E  E  E  E  E  E  E
G||--------------------------|--------------------------|
D||--------------------------|--------------------------|   x3
A||--5--5-----5--7--7--8--0--|--------------4--4--7--0--|
E||--------------------------|--5--5-----6--------------|


     E  E  E  E  E  E  E  E      E   E   E   E  E  E  E  E
G||--------------------------|------------------------------|
D||--------------------------|------------------------------|
A||--5--5-----5--7--7--8--0--|--12--12--10--10--8--8--7--7--|
E||--------------------------|------------------------------|

     W                W
G||------------------------------------|
D||------------------------------------|
A||--5----------------L----------------|
E||------------------------------------|
            
Hard to play? Try these video lessons and learn fast. | Correct




comments powered by Disqus
↑ Back to top | Tablatures and chords are parodies/interpretations of the original songs. You may use it for private study, scholarship, research or language learning purposes only