» » »

Muse, Butterflies And Hurricanes Tabs (ver.2)

Artists:  A B C D E F G H I J K L M N O P Q R S T U V W X Y Z # 

Butterflies And Hurricanes Tabs (ver.2)

Muse Tabs
 Rating:
4/5 (4 votes)
Butterflies And Hurricanes lessons Tabs too difficult? Try these video lessons and learn fast
                (Live)
On the "Absoultion" album it's played on the piano but live it's switched to guitar...Dropped D

e-11111111-11111111-11111111-11111111-11111111-11111111---------------
b-33333333-22222222-11111111-00000000-33333333-33333333----------5555-
g-22222222-22222222-22222222-22222222-33333333-22222222-88888888-4444-
d-00000000-00000000-00000000-00000000-00000000-00000000-99999999-6666-
a-------------------------------------------------------88888888-7777-
D-------------------------------------------------------66666666------

--A7-------A-------A7-------A-----------
e-00000000-3333333-00000000-00000000----
b-22222222-2222222-22222222-22222222----
g-00000000-3333333-00000000-22222222-X2-
d-22222222-2222222-22222222-22222222----
a-00000000-0000000-00000000-00000000----
D---------------------------------------

Chours
--Bb-------Dm-------Bb-------Dm-------Bb-------F--------
E----------11111111----------11111111----------11111111-22222222
B-33333333-33333333-33333333-33333333-33333553-11111111-33333333
G-33333333-22222222-33333333-22222222-33333333-22222222-22222222
D-33333333-00000000-33333333-00000000-33333333-33333333-00000000
A-11111111-00000000-11111111-00000000-11111111-33333333-xxxxxxxx
D----------00000000----------00000000----------33333333-44444444

E-33333333-------------------------------------3333333333333333-
B-33333333-------------------------------------2222222222222222-
G-33333333-77776666-33332222-77776666-33332222-3333333333333333-xx
D-55555555-88888888-33333333-88888888-33333333-2222222222222222-xx
A-55555555-88888888-33333333-88888888-33333333-0000000000000000-xx
D-55555555-88888888-33333333-88888888-33333333------------------xx

E--------------------------------X2
B--------------------------------X2
G--------------------------------X2
D--------------------------------X2
A-7-14-11-8-5-8-7-14-11-8-5-8-xx-X2
D-7-14-11-8-5-8-7-14-11-8-5-8-xx-X2

Verse 2 part 1
E---------------------------------------------------------------------
B---------------------------------------------------------------------
G-10101010-10101010-10101010-10101010-10101010------------------------
D-12121212-11111111-10101010-99999999-88888888------------------------
A-12121212-12121212-12121212-12121212-12121212-/1212-1111-1010-99-8-7-
D-00000000-00000000-00000000-00000000-00000000-/1212-1111-1010-99-8-7-

E------------------------------------------
B----------5555555------8888------55555555-
G-88888888-4444444-6666-6666-6666-66666666-
D-99999999-6666666-5555-7777-5555-77777777-
A-88888888-7777777-7777-7777-7777-77777777-
E-66666666---------7777-7777-7777-77777777-

Verse 2 part 2
E-----------------------------------------------------
B-----------------------------------------------------
G--7777777777--999999999-101010101010--12121212121212-
D--xxxxxxxxxx--xxxxxxxxx--xxxxxxxxxxx---xxxxxxxxxxxxx-
A--5555555555--777777777--88888888888--10101010101010-
D-----------------------------------------------------
---Fights.........And.....Have..........Begun........

E---------------------------------------------------------------------Chours
B---------------------------------------------------------------------Chours
G--141414141414--14bu(16)bd(14)-14--131313131313--101010101010-13-14--Chours
D--XXXXXXXXXXXX--x--Play quick--x---xxxxxxxxxxxx--xxxxxxxxxxxx-x---x--Chours
A--121212121212--12-------------12--121212121212--888888888888-11-12--Chours 
D---------------------------------------------------------------------Chours
...Shorly..............Come..........Your.........Hard..........Ahead

E--------------------------------X2
B--------------------------------X2
G--------------------------------X2
D--------------------------------X2
A-7-14-11-8-5-8-7-14-11-8-5-8-xx-X2
D-7-14-11-8-5-8-7-14-11-8-5-8-xx-X2

E--------------------------------X2
B--------------------------------X2
G--------------------------------X2
D--------------------------------X2
A-8-15-12-9-6-9-8-15-12-9-6-9-xx-X2
D-8-15-12-9-6-9-8-15-12-9-6-9-xx-X2

E--------------------------------X2
B--------------------------------X2
G--------------------------------X2
D--------------------------------X2
A-7-14-11-8-5-8-7-14-11-8-5-8-xx-X2
D-7-14-11-8-5-8-7-14-11-8-5-8-xx-X2

Solo

D-0/14~14~14~12-14-14BU(16)bd(14)-12-14~\0-(messing with Hammers and pulls)
A------------------------------------------

D-0/15~15~15~13-15-15bu(17)bd(15)-13-15~-(messing with Hammers and pulls)
A----------------------------------------

E--------------------------------------------------------------------
B-10-----10-----10-----10-----\0/:x2:11-----11-----11-----11-----\0/-
G-12b(14)12b(14)12b(14)12b(14)\0/:x2:13b(15)13b(15)13b(15)13b(15)\0/-
D--------------------------------------------------------------------

D-------------------
A-8888-1010-11-12\0-
D-8888-1010-11-12\0-
            
Submit corrections

comments powered by Disqus
↑ Back to top | Muse Tabs for Butterflies And Hurricanes. Lyrics for acoustic guitar and electric guitar. Tablatures and chords are parodies/interpretations of the original songs. You may use it for private study, scholarship, research or language learning purposes only