» » »

Muse, Bliss Tabs (ver.2)

Artists:  A B C D E F G H I J K L M N O P Q R S T U V W X Y Z # 

Bliss Tabs (ver.2)

Muse Tabs
 Rating:
4/5 (4 votes)
Bliss lessons Tabs too difficult? Try these video lessons and learn fast
                Intro 1

e|-11----11----11--------10----10----10--------13----13----13---
B|---13----13----13--------11----11----11--------13----13----13-
G|-----12----12--------------10----10--------------13----13-----
D|--------------------------------------------------------------
A|--------------------------------------------------------------
E|--------------------------------------------------------------

intro 2
      C    Bb     F
e|-------xx----xx----x-1111-xx----xx----x------xx-11-xx-11-x------xx----xx-----------
B|--4444-xx-33-xx-33-x-1111-xx-44-xx-44-x-3333-xx-11-xx-11-x-4444-xx-44-xx-44--------
G|--5555-xx-33-xx-33-x-1111-xx-55-xx-55-x-3333-xx-11-xx-11-x-5555-xx-55-xx-55--------
D|--5555-xx-33-xx-33-x-3333-xx-55-xx-55-x-3333-xx-33-xx-33-x-5555-xx-55-xx-55--------
A|--3333-xx-11-xx-11-x-3333-xx-33-xx-33-x-1111-xx-33-xx-33-x-3333-xx-33-xx-33--------
E|-------xx----xx—---x-1111-xx----xx----x------xx-11-xx-11-x------xx----xx-----------


e|---
B|-4-
G|-5-
D|-5-  Let ring
A|-3-
E|---

Bass Verse 

Chorus
        C       Am	           G
e|------------------------------------
B|------------------------------------
G|--55555555--------------------------
D|--55555555-77777777-5555555555555555
A|--33333333-77777777-5555555555555555
E|-----------55555555-3333333333333333

        C       Am	          E
e|------------------------------------
B|------------------------------------
G|--55555555--------------------------
D|--55555555-77777777-2222222222222222
A|--33333333-77777777-2222222222222222
E|-----------55555555-0000000000000000

Intro 2
Bass Verse
Chorus x2
Intro 1

e|----------------------------------------------------------------------
B|----------------------------------------------------------------------
G|--555555555-777777777-101010-888-777-888-777-555-777-555-33-----------
D|--xxxxxxxxx-xxxxxxxxx—x-x-x--xxx-xxx-xxx-xxx-xxx-xxx-xxx-xx666-555-33-
A|--333333333-555555555—8-8-8--666-555-666-555-333-555-333-11xxx-xxx-xx-
E|-----------------------------------------------------------444-333-11-



e|---
B|---
G|-5-
D|-x-  x24
A|-3-
E|---

chorus x 2
intro 1 fades away
            
Submit corrections

comments powered by Disqus
↑ Back to top | Muse Tabs for Bliss. Lyrics for acoustic guitar and electric guitar. Tablatures and chords are parodies/interpretations of the original songs. You may use it for private study, scholarship, research or language learning purposes only