» » »

Under My Skin Tabs (ver.3)

Artists:  A B C D E F G H I J K L M N O P Q R S T U V W X Y Z # 

Under My Skin Tabs (ver.3)

Mudvayne
Rating:
0/5 (0 votes)

Hard to play? Try these video lessons and learn fast.
                Tuning: Drop B, (B,F#,B,E,G#,C#)

Intro:
|-----------------------|
|-----------------------|
|-----------------------|
|-7h8-0-0-3h4-0-0-5h6-0-|
|-7h8-0-0-3h4-0-0-5h6-0-|
|-7h8-0-0-3h4-0-0-5h6-0-|

Main Riff: (0:02)
|----------------------------|
|----------------------------|
|----------------------------|
|-3p1-0--1--1/3-0--3h4-3h4-0-|
|-3p1-0--1--1/3-0--3h4-3h4-0-|
|-3p1-0--1--1/3-0--3h4-3h4-0-|

VERSE: (0:18)
|------------|
|-6--6--9--9-|
|-4--4--7--7-|
|------------|
|------------|
|------------|

CHORUS: (0:34)
() = first time only
|---------------------------------------|
|---------------------------------------|
|---------------------------------------|
|-(2h3-2h3)---2h3-2h3---2h3-2h3-2h3-2h3-|
|-(2h3-2h3)---2h3-2h3---2h3-2h3-2h3-2h3-|
|-(2h3-2h3)---2h3-2h3---2h3-2h3-2h3-2h3-|

INTERLUDE: (1:38)
|-------------------------------|
|-------------------------------|
|-------------------------------|
|-------------------------------|
|-------------------------------|
|-0h3h4-0h4h5-0h6h7-0h3h4-0h4h5-|

FILL: (2:05)
|---------|
|---------|
|---------|
|-0-0-0-0-|
|-0-0-0-0-|
|-0-0-0-0-|

INTERLUDE 2: (2:14)
|-------------------------------|
|-------------------------------|
|-------------------------------|
|-------------------------------|
|-0h3h4-0h4h5-0h6h7-0h3h4-0h4h5-|
|-0h3h4-0h4h5-0h6h7-0h3h4-0h4h5-|

INTERLUDE 3: (2:48)
|-------------------------------------------------------------|
|-15-15-15-15-15-15-15-15-15-15-15-15-16-16-16-16-16-16-16-16-|
|-------------------------------------------------------------|
|-------------------------------------------------------------|
|-------------------------------------------------------------|
|-------------------------------------------------------------|

|-------------------------------------------------15-15-15-15-|
|-15-15-15-15-15-15-15-15-15-15-15-15-15-15-15-15-------------|
|-------------------------------------------------------------|
|-------------------------------------------------------------|
|-------------------------------------------------------------|
|-------------------------------------------------------------|

INTERLUDE 4: (3:06)
<> = harmonic
|-------------------------|
|-------------------------|
|-------------------------|
|-------5-4-------5-4-<3>-|
|-0h2h3-3-2-0h2h3-3-2-----|
|-0h2h3-----0h2h3---------|
            
Hard to play? Try these video lessons and learn fast. | Correct




comments powered by Disqus
↑ Back to top | Tablatures and chords are parodies/interpretations of the original songs. You may use it for private study, scholarship, research or language learning purposes only