>
 >
Fall Into Sleep

Fall Into Sleep Bass Tabs

Mudvayne - Fall Into Sleep chords, tabs, tablatures, lyrics

Guitar lessons | Add/correct | Request | Top 50 tabs Artists:  A B C D E F G H I J K L M N O P Q R S T U V W X Y Z 0-9

Fall Into Sleep Bass Tabs – Mudvayne

CD, Sheet music, Poster

Do you like Fall Into Sleep? Share with your friends now
Bass TabsBass Tabs v2Bass Tabs v3ChordsDrum TabsTabsTabs v2Tabs v3Ukulele
Mudvayne - Fall Into Sleep

tuning (low to high) - C G C F

Rest for 4 bars in 4/4 

   ssssssssssss s s s s    ss s s s s s s s s s ss s s s    ss s s s s s ss s ss s sss
|------------------------|--------------------------------|----------------------------|
|4-----------------------|--------------------------------|----------------------------|
|4--------------12121010-|-9------------------------------|-9--------------------------|
|--0000000000012---------|--12121212121212121212010101012-|--1212121212120101201012057-|

  e ssssssssss  ssss   e sssssssss s s s s s    ss s s s s s s s s s ss s s s
|--------------------|------------------------|--------------------------------|
|--------------------|------------------------|--------------------------------|
|--------------------|---------------12121010-|-9------------------------------|
|-8-88887533333h5555-|-0-000000007/12---------|--12121212121212121212010101012-|

  ss s s s s s ss s ss s  sss   e sssssse ss  ssss   w       w        w        w
|-----------------------------|--------------------|------|--------|--------|--------|
|-----------------------------|--------------------|------|--------|--------|--------|
|-9---------------------------|--------------------|------|--------|--------|--------|
|--1212121212120101201012\057-|-8-8888753-333h5555-|-0----|-(0)----|-(0)----|-(0)----|

  ssssss e.  ssssse    ssssssq.  ttsE  ssssss e.  ssssse     ssssssssssssssss
|--------------------|---------------|--------------------|-------------------|
|--------------------|---------------|--------------------|-------------------|
|-------/5-7h875785\-|-------3---000-|-------/5-7h875785\-|-/888777333222-----|
|-000000-------------|-333333--------|-000000-------------|--------------5533-|

  ssssss e.  ssssse    sssssse   q   ttsE  ssssss e   ssssse     ssssssssssssssss
|--------------------|-------------------|--------------------|-------------------|
|--------------------|-------------------|--------------------|-------------------|
|-------/5-7h875785\-|-------3--(3)^-----|-------/5-7h875785\-|-/888777333222-----|
|-000000-------------|-333333--------000-|-000000-------------|--------------5533-|

    ssssE  ssse  st tssS    ssssE  ssse  st tssS    ssssE  ssse  st tsss
|-----------------------|-----------------------|------------------------|
|-----------------------|-----------------------|------------------------|
|-3h5----3h5----------3-|-3h5----3h5----------3-|-3h5----3h5----------30-|
|----057----035\-X0h10--|----057----035\-X0h10--|----057----035\-X0h10---|

  e sssssse ssssss   e sssssssss s s s s s    ss s s s s s s s s s ss s s s
|------------------|------------------------|--------------------------------|
|------------------|------------------------|--------------------------------|
|-1-11110----------|---------------12121010-|-9------------------------------|
|--------53-335555-|-0-000000007/12---------|--12121212121212121212010101012-|

  ss s s s s s ss s ss s sss   e sssssse ssssss   w           w
|----------------------------|------------------|----------|------------|
|----------------------------|------------------|----------|------------|
|-9--------------------------|------------------|----------|------------|
|--1212121212120101201012057-|-8-8888753-335555-|-0--------|-(0)--------|

  ssssss e.  ssssse    ssssssq.  ttsE  ssssss e.  ssssse     ssssssssssssssss
|--------------------|---------------|--------------------|-------------------|
|--------------------|---------------|--------------------|---------5---------|
|-------/5-7h875785\-|-------3---000-|-------/5-7h875785\-|-/8887773-3222-----|
|-000000-------------|-333333--------|-000000-------------|--------------5533-|

  ssssss e.  ssssse    sssssse   q   ttsE  ssssss e   ssssse     ssssssssssssssss
|--------------------|-------------------|--------------------|-------------------|
|--------------------|-------------------|--------------------|-------------------|
|-------/5-7h875785\-|-------3--(3)^-----|-------/5-7h875785\-|-/888777333222-----|
|-000000-------------|-333333--------000-|-000000-------------|--------------5533-|

   ssssssssssssssss    sssssssssssssse    sssssssss e ssse    s s s s s s ssse ssse
|-------------------|-------------------|------------------|------------------------|
|-------------------|-------------------|------------------|------------------------|
|-----888---888---8-|-----777---777-----|--------------35--|-/1212121010108887-5785-|
|-/808---808---808--|-/707---707---707\-|-000222333/5-0--3-|------------------------|

   ssssssssss  s sssss    ssssssssss  sssse    sssssssss e ssse
|----------------------|---------------------|------------------|
|----------------------|---------------------|------------------|
|-----888---88h108-----|-----777---77h87-----|--------------35--|
|-/808---808------8088-|-/707---707-----707\-|-000222333/5-0--3-|

   s s s s s s ssse ssse   w           w           ssssss e   ssssse    ssssssq. tte.
|------------------------|----------|------------|--------------------|---------------|
|------------------------|----------|------------|--------------------|---------------|
|-/1212121010108887-5785-|----------|------------|-------/5-7h875785\-|-------3-------|
|------------------------|-0--------|-(0)--------|-000000-------------|-333333---003--|

  ssssss e   ssssse     ssssssssssssssss   ssssss e  s s s s s e   ssssssq. tte.
|--------------------|-------------------|-----------------------|---------------|
|--------------------|---------5---------|---------------10------|---------------|
|-------/5-7h875785\-|-/8887773-3222-----|-------/5--X/12--12108-|-------3-------|
|-000000-------------|--------------5533-|-000000----------------|-333333---003--|

  ssssss e   ssssse      ssssssssssss     ssssssssssssssss   w           w
|--------------------|----------------|--------------------|----------|------------|
|--------------------|3---------------|4-------------------|----------|------------|
|-------/5-7h875785\-|4-/888777333222-|4-/888777333222-----|----------|------------|
|-000000-------------|----------------|---------------5533-|-0--------|-(0)--------|

  sssssssssss s s s s s    ss s s s s s s s s s ss s s s    ss s s s s s ss s ss s sss
|------------------------|--------------------------------|----------------------------|
|------------------------|--------------------------------|----------------------------|
|---------------12121010-|-9------------------------------|-9--------------------------|
|-00000000007/12---------|--12121212121212121212010101012-|--1212121212120101201012057-|

  e sssssse. s  e. s   w
|--------------------|----------||
|--------------------|----------||
|--------------------|----------||
|-8-8888753--33h5--5-|-0--------||





Comments


Popular Mudvayne tabs & chords
-1 2 Bass Tabs
Cradle 2 Bass Tabs
Everything And Nothing Bass Tabs
Prod Bass Tabs
Tv Radio 2 Bass Tabs
Coal Tabs
Dig 3 Tabs
Mercy Severity 4 Tabs
Silenced-The End Of All Things To Come Tabs
Forget To Remember Ukulele


Song lyrics



↑ Back to top | Tablatures and chords are parodies/interpretations of the original songs. You may use it for private study, scholarship, research or language learning purposes only
© 2014 AZChords.com Contact us | Privacy policy | DMCA | Add/correct tabs | Request tabs | Top 50 tabs