>
 >
Everything And Nothing

Everything And Nothing Bass Tabs

Mudvayne - Everything And Nothing chords, tabs, tablatures, lyrics

Guitar lessons | Add/correct | Request | Top 50 tabs Artists:  A B C D E F G H I J K L M N O P Q R S T U V W X Y Z 0-9

Everything And Nothing Bass Tabs – Mudvayne

CD, Sheet music, Poster

Do you like Everything And Nothing? Share with your friends now
Bass TabsBass Tabs v2Bass Tabs v3TabsTabs v2Tabs v3
tuning: B F# B E (Ryknow doesn't use the 5th string in
this song)
comments: This song isn't too hard since Ryknow
follows the guitar most of the time.

Intro   0:07
E --------------------------------------------
B --------------------------------------------
F#--------------------------------------------
B -0--0------0--0------0--0------0--0------1/-

Verse   0:17, 0:45     x3
E ------7-7-7------7-7h8-|---9---7---6---5---6---8-
B -0--0-------0--0-------|-7---5---4---3---4---6---
F#-----------------------|-------------------------
B -----------------------|-------------------------
                       x3
E ------7-7-7------7-7h8-|---9---8---10--12--13--14-
B -0--0-------0--0-------|-7---6---8---10--11--12---
F#-----------------------|--------------------------
B -----------------------|--------------------------

Chorus   0:36, 1:05
E -----------------------
B -----------------------
F#------5-5-5------5-5h6-
B -0--0-------0--0-------
         1:24
E -9-9-9-9-9/11-11-11-11-11-11/12-12-12-12/-
B -7-7-7-7-7/9--9--9--9--9--9//10-10-10-10/-
F#------------------------------------------
B ------------------------------------------
   st.....................................
         1:26
E -------------------------
B -------------------------
F#-2-----------------------
B ---3p2-0--2p0-0--2h3-2-0-

Pre-bridge   1:46
E ---------------------------------------
B ---------------------------------------
F#---------------------------------------
B -0--0------0--0------0-------0--0------

Bridge   1:56
E -----3--2-----3h5-------------------5--4--3-
B -0-2------0----------4--2--0-2-5-0----------
F#--------------------------------------------
B --------------------------------------------

E -----3--2-----3h5--------------------13-13-15-15-
B -0-2------0----------4--2--0-2-5-0---------------
F#-------------------------------------------------
B -------------------------------------------------

Bridge outro
E --------------------8-----
B -7h8-7-5--0--6---7--------
F#--------------------------
B --------------------------

Heavy Part   2:26, 2:38
E --------------------
B --------8-----------
F#-8\--0-----0--/8--0-
B --------------------

Chorus   2:29, 2:41
E -----------------------
B -----------------------
F#------5-5-5------5-5h6-
B -0--0-------0--0-------
   2:50
E -9-9-9-9-9/11-11-11-11-11-11/12-12-12-12/-
B -7-7-7-7-7/9--9--9--9--9--9//10-10-10-10/-
F#------------------------------------------
B ------------------------------------------
   st......................................
   2:53
E -------------------------
B -------------------------
F#-2-----------------------
B ---3p2-0--2p0-0--2h3-2-0-

Outro   3:12
E -------------------------
B -------------------------
F#-------------------------
B -0--0--3--0--0---3-0-3-0-

That'll do it. Email me with any questions.





Comments


Popular Mudvayne tabs & chords
Everything And Nothing 3 Bass Tabs
The End Of All Things To Come Bass Tabs
Tv Radio 2 Bass Tabs
Not Falling Drum Tabs
12:97:24:99 Tabs
Dig Tabs
Mercy Severity 2 Tabs
Patient Mental Tabs
Seed Tabs
World So Cold 1 Tabs


Song lyrics



↑ Back to top | Tablatures and chords are parodies/interpretations of the original songs. You may use it for private study, scholarship, research or language learning purposes only
© 2014 AZChords.com Contact us | Privacy policy | DMCA | Add/correct tabs | Request tabs | Top 50 tabs