» » »

Diggg Tabs (ver.1)

Artists:  A B C D E F G H I J K L M N O P Q R S T U V W X Y Z # 

Diggg Tabs (ver.1)

Mudvayne
Rating:
0/5 (0 votes)

Hard to play? Try these video lessons and learn fast.
                Tuning: Dropped d
Notes:
Tab explanation: PM = PALM MUTE
		 ^ = BEND UP & DOWN
		 X = SCRATCHING SOUND

|---------------------------------|
|---------------------------------|
|---------------------------------|
|--00-000-00-000-00-000-00-000----|
|--00-000-00-000-00-000-00-000----|
|--00-000-00-000-00-000-00-000----|
pm.............................

|--------------------------------------------|
|--------------------------------------------|
|-----9^----9^---9^---9^---9^---9^---9^---9^-|
|----8^----8^---8^---8^---8^---8^---8^---8^--|
|--------------------------------------------|
|-000--000--000--000--000--000--000--000-----|
PM...  ...  ...  ...  ...  ...  ...  ...

EYAAAAGHHH
|-------------------------------------|
|-------------------------------------|
|-------------------------------------|
|-00-0--222-33-11-21------------------|
|-00-0--222-33-11-21------------------|
|-00-0--222-33-11-21------------------|
PM.  .  ... .. .. .  
|---------------------------------|
|---------------------------------|
|---------------------------------|
|----9^---------------------------|
|---8^----------------------------|
|-00------------------------------|
PM..
|-------------------------------------|
|-------------------------------------|
|-------------------------------------|
|-00-0--222-33-11-21------------------|
|-00-0--222-33-11-21------------------|
|-00-0--222-33-11-21------------------|

|---------------------------------|
|---------------------------------|
|---------------------------------|
|----9^---------------------------|
|---8^----------------------------|
|-00------------------------------|
PM..

|---------------------------------|
|---------------------------------|
|---------------------------------|
|-0--00---00---00-----------------|
|-0--00---00---00-----------------|
|-0--00---00---00-----------------|

|---------------------------------|
|---------------------------------|
|---------------------------------|
|---------------------------------|
|-7777777777777777----------------|
|---------------------------------|
PM.................

|---------------------------------|
|---------------------------------|
|---------------------------------|
|-2-3-4-5-4-3-0-------------------|
|-2-3-4-5-4-3-0-------------------|
|-2-3-4-5-4-3-0-------------------|
PM...........

|---------------------------------|
|---------------------------------|
|---------------------------------|
|-0-0-0-0-------------------------|
|-0-0-0-0-------------------------|
|-0-0-0-0-------------------------|

|---------------------------------|
|---------------------------------|
|---------------------------------|
|-0-XX-X-XXXX---------------------|
|-0-XX-X-XXXX---------------------|
|-0-XX-X-XXXX---------------------|

|---------------------------------|
|---------------------------------|
|---------------------------------|
|-00----------------00------------|
|-00----------------00------------|
|-00-21-21-21-21-10-00------------| NOT TEN & TWENTY ONE
PM..

|---------------------------------|
|---------------------------------|
|---------------------------------|
|-00-21-21-21-21-10-00------------| NOT TEN & TWENTY ONE
|-00-21-21-21-21-10-00------------| NOT TEN & TWENTY ONE
|-00-21-21-21-21-10-00------------| NOT TEN & TWENTY ONE

STAY COOL, STAY ALIVE, STAY METAL \m/\m/
            
Hard to play? Try these video lessons and learn fast. | Correct




comments powered by Disqus
↑ Back to top | Tablatures and chords are parodies/interpretations of the original songs. You may use it for private study, scholarship, research or language learning purposes only