» » »

Mudvayne, Digg Tabs (ver.3)

Artists:  A B C D E F G H I J K L M N O P Q R S T U V W X Y Z # 

Digg Tabs (ver.3)

Mudvayne Tabs
Rating:
0/5 (0 votes)
Hard to play? Try these video lessons and learn fast.
                Mudvayne
Dig

Tuning: (B-F#-B-E-G#-C#) RATE THIS TAB!!!!!!!!!!!!


. = palm mute
^ = bend
v = release bending
h = hammer-on
p = pull-off


Part I:

|-----------------------------------------------------|
|-----------------------------------------------------|
|-----------------------------------------------------|
|--0-0---0-0---0-0---0-0---0-0---0-0---0-0---0-0------|
|--0-0---0-0---0-0---0-0---0-0---0-0---0-0---0-0------|
|--0-0---0-0---0-0---0-0---0-0---0-0---0-0---0-0------|
   . .   . .   . .   . .   . .   . .   . .   . .

Part II:
                                                    
|-----------------------------------------------------|
|-----------------------------------------------------|
|-------9^v-------------------------------------------|
|--0-0--x---------------------------------------------|
|--0-0--7^v-------------------------------------------|
|--0-0------------------------------------------------|
   . .    

Part III:
                          x3
|--------------------------|--------------------------|
|--------------------------|--------------------------|
|--------------------------|--------------------------|
|--2h3p2--2-0-0-0-2-3-2-0--|--0-0--2------------------|
|--2h3p2--2-0-0-0-2-3-2-0--|--0-0--1------------------|
|--2h3p2--2-0-0-0-2-3-2-0--|--0-0---------------------|
                              . .

Part IV:

                         x3 
|-------------------------|------------------------------------------------|
|-------------------------|------------------------------------------------|
|-------------------------|--12-12-12-12-12-12-12-12-12-12-12-12-12-12-12--|
|--2-2---2-0-0-0-2-3-2-0--|--x--x--x--x--x--x--x--x--x--x--x--x--x--x--x---|
|--2-2---2-0-0-0-2-3-2-0--|--10-10-10-10-10-10-10-10-10-10-10-10-10-10-10--|
|--2-2---2-0-0-0-2-3-2-0--|------------------------------------------------|
   . .   . . . . . . . .

Part V:

|-----------------------------------------------------|
|-----------------------------------------------------|
|-----------------------------------------------------|
|--0-1-2-5-4-3----------------------------------------|
|--0-1-2-5-4-3----------------------------------------|
|--0-1-2-5-4-3----------------------------------------|


Part VI;


|-----------------------------------------------------|
|-----------------------------------------------------|
|-----------------------------------------------------|
|--2h3p2----------------------------------------------|
|--2h3p2----------------------------------------------|
|--2h3p2----------------------------------------------|


Part VII:


|-----------------------------------------------------|
|-----------------------------------------------------|
|-----------------------------------------------------|
|--2h3p2--2--2-2222-----------------------------------|
|--2h3p2--2--2-2222-----------------------------------|
|--2h3p2--2--2-2222-----------------------------------|
          .  . .... 

Part VIII:


|-----------------------------------------------------|
|-------7^v--7^v--7^v--7^v--7^v-----------------------|
|-------x----x----x----x----x-------------------------|
|--2-2--4^v--4^v--4^v--4^v--4^v-----------------------|
|--2-2------------------------------------------------|
|--2-2------------------------------------------------|
   . .


Part IX:


|-----------------------------------------------------|
|-----------------------------------------------------|
|-----------------------------------------------------|
|--2-2--6-5-6-5-6-5-6-5-6-5---------------------------|
|--2-2--6-5-6-5-6-5-6-5-6-5---------------------------|
|--2-2--6-5-6-5-6-5-6-5-6-5---------------------------|
   . .

Thats it!!!! Enjoy it. It's 100% PERFECT!!!!!!!
            

comments powered by Disqus
↑ Back to top | Mudvayne Tabs for Digg. Lyrics for acoustic guitar and electric guitar. Tablatures and chords are parodies/interpretations of the original songs. You may use it for private study, scholarship, research or language learning purposes only