» » »

Mudvayne, Dig Tabs (ver.3)

Artists:  A B C D E F G H I J K L M N O P Q R S T U V W X Y Z # 

Dig Tabs (ver.3)

Mudvayne Tabs
 Rating:
4/5 (4 votes)
Dig lessons Tabs too difficult? Try these video lessons and learn fast
1
                "(0)
Tuning: BF#BEG#C#

-----------------------|--------------------------|---------------------------
-----------------------|--------------------------|---------------------------
-----------------------|------9b10r9-------9b10r9-|---------------------------
-0-0---0-0---0-0---0-0-|-0-0----------0-0---------|---------------------------
-0-0---0-0---0-0---0-0-|-0-0--7-------0-0--7------|---------------------------
-0-0---0-0---0-0---0-0-|-0-0----------0-0---------|---------------------------
 Play twice              Play 4 times                                         

-------------------------|-----------------|-------------------|--------------
-------------------------|-----------------|-------------------|--------------
-------------------------|-----------------|-------------------|--------------
-2/3\2---0-0-0-3-2-0-0-0-|-2/3\2---0-0-0-0-|-2-2---0-0-0-3-2-0-|--------------
-2/3\2---0-0-0-3-2-0-0-0-|-2/3\2---0-0-0-0-|-2-2---0-0-0-3-2-0-|--------------
-2/3\2---0-0-0-3-2-0-0-0-|-2/3\2---0-0-0-0-|-2-2---0-0-0-3-2-0-|--------------
 Play 3 times                               Play 3 times                      

--------------------------------|----------|-------------|------------|------
--8-8-8-8-8-8-8-8-8-8-8-8-8-8-8-|----------|-------------|------------|------
--------------------------------|----------|-------------|------------|------
--5-5-5-5-5-5-5-5-5-5-5-5-5-5-5-|----------|-0-1-2-5-4-3-|-2/3\2------|------
--------------------------------|----------|-0-1-2-5-4-3-|-2/3\2------|------
--------------------------------|----------|-0-1-2-5-4-3-|-2/3\2------|------
                                 Rpt Stuff   Chugga       Play 4 times        

----------------------|----------------------------------------|--------------
----------------------|----------------------------------------|--------------
----------------------|----------------------------------------|--------------
-2/3\2--x-x-- x-x-x-x-|-0-0------------------------------------|--------------
-2/3\2--x-x---x-x-x-x-|-0-0------------------------------------|--------------
-2/3\2--x-x---x-x-x-x-|-0-0--5b6r5--5b6r5--5b6r5--5b6r5--5b6r5-|--------------
                        Play 3 times                                          

------------------------------------|--------|----------------|----------
------------------------------------|--------|----------------|----------
------------------------------------|--------|----------------|----------
-0-0---2/32--2/32--2/32--2/32--2/32-|--------|----------------|----------
-0-0---2/32--2/32--2/32--2/32--2/32-|--------|----------------|----------
-0-0---2/32--2/32--2/32--2/32--2/32-|--------|----------------|----------
 Play 4 times                              Chugga   Rpt more stuff            

-------------------------|----------------------|-----------------|-----------
-------------------------|----------------------|-----------------|-----------
-------------------------|----------------------|-----------------|-----------
-2/3\2---0-0-0-3-2-0-0-0-|-2/3\2---0-0-0--------|-0-0-0-3-2-0-0-0-|-----------
-2/3\2---0-0-0-3-2-0-0-0-|-2/3\2---0-0-0--------|-0-0-0-3-2-0-0-0-|-----------
-2/3\2---0-0-0-3-2-0-0-0-|-2/3\2---0-0-0--------|-0-0-0-3-2-0-0-0-|-----------
  That bit                                                                    

---------------------|---------------|----------------------------------------
---------------------|---------------|----------------------------------------
---------------------|---------------|----------------------------------------
---------------------|-2/3\2---0-0-2-|----------------------------------------
---------------------|-2/3\2---0-0-2-|----------------------------------------
---------------------|-2/3\2---0-0-2-|----------------------------------------
 Play that bit twice
"            
Submit corrections

comments powered by Disqus
↑ Back to top | Mudvayne Tabs for Dig. Lyrics for acoustic guitar and electric guitar. 1 Tablatures and chords are parodies/interpretations of the original songs. You may use it for private study, scholarship, research or language learning purposes only