» » »

Mudvayne, Cultivate Bass tabs (ver.2)

Artists:  A B C D E F G H I J K L M N O P Q R S T U V W X Y Z # 

Cultivate Bass tabs (ver.2)

Mudvayne Tabs
 Rating:
4/5 (4 votes)
Cultivate lessons Tabs too difficult? Try these video lessons and learn fast
1
                Drop B

h - Hammer on
x - mute
b - Bend

Intro
|---------------------|
|-2h3h202-2h3h202-2h3-|
|---------------------| x4
|---------------------|

|---------------------------------|
|---------------------------------|
|---------------------------------| x4
|-0-0-0-0-5-5-5-4-4-4-3-3-3-2-2-2-|

|-------------------------------|
|-------------------------------|
|-------------------------------| x4
|-23202-23202-23-23202-23202-23-|

Verse
|-----------------------------|
|-----------------------------|
|-----------------------------| x8
|-0-35-0-35-0-35-0-30-3-5-3-2-|

Chorus
|-------------------------------|
|-------------------------------|
|-------------------------------| x4
|-23202-23202-23-23202-23202-23-|

|---------------------------------|
|---------------------------------|
|---------------------------------| x4
|-0-0-0-0-5-5-5-4-4-4-3-3-3-2-2-2-|

Verse
|-----------------------------|
|-----------------------------|
|-----------------------------| x7
|-0-35-0-35-0-35-0-30-3-5-3-2-|

Last Bar on verse
|----------------|
|----------------|
|----------------|
|-0-35-0-35-0-35-|

Pause:-

|--------------------|
|--------------------|
|--------------3-----| x12
|-2h3-65-3h5-22--0-0-|

Chorus
|-------------------------------|
|-------------------------------|
|-------------------------------|
|-23202-23202-23-23202-23202-23-|


|---------------------------------|
|---------------------------------|
|---------5-5-5-3-3-3-------------| x2
|-0-0-0-0-------------5-5-3-5-3-2-|

|-------------------------------|
|-------------------------------|
|-------------------------------|
|-23202-23202-23-23202-23202-23-|

|---------------------------------|
|---------------------------------|
|---------5-5-5-3-3-3-------------| x2
|-0-0-0-0-------------5-5-3-5-3-2-|

|-------------------------------|
|-------------------------------|
|-------------------------------|
|-23202-23202-23-23202-23202-23-|

|---------------------------------|
|---------------------------------|
|---------5-5-5-3-3-3-------------| x4
|-0-0-0-0-------------5-5-3-5-3-2-|

|--------------------------|
|--------------------------|
|--------------------------| x8
|-0-35-0-35-0-2b-0-35-0-2b-|

|--------------------------|
|--------------------------|
|--------------------------| x6
|-0-35-0-35-0-2b-0-35-0-2b-|

|--------------------------|
|-0-35-0-35-0-2b-0-35-0-2b-|
|--------------------------|x2
|--------------------------|

|---------------|
|---------------|
|---------------| x8
|-0-35-0-35-0-2-|


PEFECT!! GOOD LUCK!!

live messanger chat with me live about it
            
Submit corrections

comments powered by Disqus
↑ Back to top | Mudvayne Bass for Cultivate. Lyrics for acoustic guitar and electric guitar. 1 Tablatures and chords are parodies/interpretations of the original songs. You may use it for private study, scholarship, research or language learning purposes only