>
 >
All That You Are

All That You Are Bass Tabs

Mudvayne - All That You Are chords, tabs, tablatures, lyrics

Guitar lessons | Add/correct | Request | Top 50 tabs Artists:  A B C D E F G H I J K L M N O P Q R S T U V W X Y Z 0-9

All That You Are Bass Tabs – Mudvayne

CD, Sheet music, Poster

Do you like All That You Are? Share with your friends now
Bass TabsBass Tabs v2TabsTabs v2
Mudvayne - All That You Are

tuning (low to high) - C G C F

Rest for 1:32

Riff 1 x2
     e e  e    e e  e    e e    e    e e  e    e e s s e
|-----------------------------|--------------------------|
|4-7h8-------7h8-------7h8----|----7h8-------7h8-8-108-7-|
|4-----10-10-----10-10-----10-|-10-----10-10-------------|
|-----------------------------|--------------------------|
                            ( 3 )
    e e e   e e e   e e   e s s s e e   e e ss e
|-----------------------|------------------------|
|-3h5-0-0-3h5-0-0-3h5-0-|-0----------------------|
|-----------------------|---5h6p5-----5h6-6-86-5-|
|-----------------------|---------8-8------------|

    e e  e    e e  e    e e    e    e e  e    e e s s e
|----------------------------|--------------------------|
|-7h8-------7h8-------7h8----|----7h8-------7h8-8-108-7-|
|-----10-10-----10-10-----10-|-10-----10-10-------------|
|----------------------------|--------------------------|
                            ( 3 )
    e e e   e e e   e e   e s s s e  e e e e e e
|-----------------------|------------------------|
|-3h5-0-0-3h5-0-0-3h5-0-|-0----------------------|
|-----------------------|---5h6p5----------------|
|-----------------------|---------8\-3h5-5-5-5-5-|

Riff 2 x1
  s s e sss s e sss s e   sss s e sss s e q
|-----------------------|----------------------|
|-----------------------|----------------------|
|-3h5---XX3h5---XX3h5---|-XX3h5---XX3h5-5/12^--|
|-----0-------0-------0-|-------0--------------|

Fill 1 x1
  s s e sss s e sss s e   sss s e sss s e  e e
|-----------------------|----------------------|
|-----------------------|------------------7---|
|-3h5---XX3h5---XX3h5---|-XX3h5---XX3h5-5/---9-|
|-----0-------0-------0-|-------0--------------|

Riff 1 x1

Fill 2 x1
    e e  e    e e  e    e e    e    e e  e e  e  ss  e
|----------------------------|--------------------10---|
|-7h8-------7h8-------7h8----|----7h8----7/10-10\8---8-|
|-----10-10-----10-10-----10-|-10-----10---------------|
|----------------------------|-------------------------|
                            ( 3 )
    e e e   e e e   e e   e s s s e  e e e e e 
|-----------------------|----------------------|
|-3h5-0-0-3h5-0-0-3h5-0-|-0--------------------|
|-----------------------|---5h6p5--------------|
|-----------------------|---------8\-3h5-5-5-5-|

Riff 2 x2

Riff 3A x1
  e  e  e  e Q   e  e    e  e E e   e  e   e  e   e  e  e  e  e  e E e
|----------------------|------------------------|-----------------------|
|----------------------|------------------------|----10-----------------|
|-10-10-10-8\---/10-10-|-10-8-----8h10-8-8h10-8-|-10----12-12-12-10-----|
|----------------------|-------/8---------------|--------------------10-|




   e  e  e  e E e   s ss ss ss s     e e e e Q   e e   e eE  e   e e e e 
|-------------------5\4----------|-------------------|-------------------|
|5-10----------------------------|4------------------|-------------------|
|4----12-12-10------3\2---0h2----|4-/6-6-6-5\---/6-6-|-6-5-----5h6-5-6-5-|
|---------------10\----0h3---3p0-|-------------------|------/8-----------|

  e e e e e eE e     e e e e Q s ss ss ss s
|-----------------|------------5\4----------|
|---7-------------|5-7----------------------|
|-6---8-8-8-7-----|4---8-8-7---3\2---0h2----|
|--------------10-|---------------0h3---3p0-|

Fill 3 x1                                                            ( 3 )
   E s sq   s sq   s s   q   s sq   s ss s e  E s sq  s sq  s s   q  s s s q  s sss e
|----------------------|---------------------|------------------|---------------------|
|4---7h8----7h8----7h8-|-----7h8----7h8108-7-|--3h50--3h50--3h5-|-0-------------------|
|4------10-----10------|-10-----10-----------|------------------|----5h6p5----5h686-5-|
|----------------------|---------------------|------------------|----------8----------|
                                                                  ( 3 )
 E s sq   s sq   s s   q   s sq   s ss s e  E s sq  s sq  s s   e s s s e  e e e e e 
|--------------------|---------------------|------------------|----------------------|
|--7h8----7h8----7h8-|-----7h8----7h8108-7-|--3h50--3h50--3h5-|-0--------------------|
|-----10-----10------|-10-----10-----------|------------------|---5h6p5--------------|
|--------------------|---------------------|------------------|---------8\-3h5-5-5-5-|

Riff 1 x1

Riff 2 x2

Riff 3B x1
  e  e  e  e Q   e  e    e  e E e   e  e   e  e   e  e  e  e  e  e E e
|----------------------|------------------------|-----------------------|
|----------------------|------------------------|----10-----------------|
|-10-10-10-8\---/10-10-|-10-8-----8h10-8-8h10-8-|-10----12-12-12-10-----|
|----------------------|-------/8---------------|--------------------10-|

   e e e e Q s ss ss ss s     e e e e Q   e e   e eE  e   e e e e
|------------5\4----------|-------------------|-------------------|
|5-7----------------------|4------------------|-------------------|
|4---8-8-7---3\2---0h2----|4-/6-6-6-5\---/6-6-|-6-5-----5h6-5-6-5-|
|---------------0h3---3p0-|-------------------|------/8-----------|

  e e e e e eE e     e  e  e  e E e   s ss ss ss s     q   e  e Q   e  e
|-----------------|-------------------5\4----------|---------------------|
|---7-------------|5-10----------------------------|4------------------8-|
|-6---8-8-8-7-----|4----12-12-10------3\2---0h2----|4-/10--10-8\---/10---|
|--------------10-|---------------10\----0h3---3p0-|---------------------|

   e  eE e s sE   q   e  e E e     e  e  e  e E e   s ss ss ss s
|---------------|---------------|-------------------5\4----------|
|3--------------|---------------|5-10----------------------------|
|4-10-8----108--|-12--12-10-----|4----12-12-10------3\2---0h2----|
|--------8------|------------10-|---------------10\----0h3---3p0-|

    e e e e Q   e e   e eE e e e e e e   e e e e e eQ     e e e eQ
|-------------------|------------------|---------------|------------|
|4------------------|------------------|---7-----------|3-7---------|
|4-/6-6-6-5\---/6-6-|-6-5----5h6-5-6-5-|-6---8-8-8-7---|4---8-8-7---|
|-------------------|------8-----------|---------------|------------|

Riff 4 x1
   s ss ss ss s Q                      s ss s q
|--5\4------------|--------|--------|--5\4----4--|
|3----------------|--bass--|--bass--|2-----------|
|4-3\2---0h2------|-simile-|-simile-|4-3\2----2--|
|-----0h3---3p0---|--------|--------|-----0h3----|

   s ss ss ss s Q                     s ss s q  q
|--5\4------------|--------|--------|-5\4----4-----|
|3----------------|--bass--|--bass--|--------------|
|4-3\2---0h2------|-simile-|-simile-|-3\2----2-----|
|-----0h3---3p0---|--------|--------|----0h3----3--|

   ssE ssE Q  ssE   ssE ssE s ss ss ss s   ssE ssE Q  ssss   ssE ssssssssssss
|-----------------|---------5\4----------|-----------------|------------------|
|4-------------6--|----------------------|------------66---|------------------|
|4-33--33-----6---|---------3\2---0h2----|-33--33-------66-|---------33-------|
|-----------------|-66--66-----0h3---3p0-|-----------------|-66--6633--663355-|

  ssE ss E Q  ssE   ssE ssE s ss ss ss s   ssE ssE E ssssss   ssE ssssssssssss
|-----------------|---------5\4----------|------------------|------------------|
|--------------6--|----------------------|-----------6666---|------------------|
|-33--33-----/6---|---------3\2---0h2----|-33--33--------66-|---------33--11---|
|-----------------|-66--66-----0h3---3p0-|------------------|-66--6633--66--33-|

  ssssssssssssssss   ssssss e s ss ss ss s   ssssssssssssssss
|------------------|----------5\4----------|------------------|
|------------------|-----------------------|------------------|
|-3333333333336666-|----------3\2---0h2----|-3333333333336666-|
|------------------|-666666-6----0h3---3p0-|------------------|

  ssssss e s ss s q      s e. e
|----------5\4----4--|--(4)-----|
|--------------------|3---------|
|----------3\2----2--|8-(2)-----|
|-666666-6----0h3----|-----3----|

Riff 3C x1
  e  e  e  e Q   e  e    e  e E e   e  e   e  e   e  e  e  e  e  e E e
|----------------------|------------------------|-----------------------|
|----------------------|------------------------|----10-----------------|
|-10-10-10-8\---/10-10-|-10-8-----8h10-8-8h10-8-|-10----12-12-12-10-----|
|----------------------|-------/8---------------|--------------------10-|

   e  e  e  e E e   s ss ss ss s     e e e e Q   e e   e eE  e   e e e e
|-------------------5\4----------|-------------------|-------------------|
|5-10----------------------------|4------------------|-------------------|
|4----12-12-10------3\2---0h2----|4-/6-6-6-5\---/6-6-|-6-5-----5h6-5-6-5-|
|---------------10\----0h3---3p0-|-------------------|------/8-----------|

  e e e e e eE e     e  e  e  e E e   s ss ss ss s     q   e  e Q   e  e
|-----------------|-------------------5\4----------|---------------------|
|---7-------------|5-10----------------------------|4------------------8-|
|-6---8-8-8-7-----|4----12-12-10------3\2---0h2----|4-/10--10-8\---/10---|
|--------------10-|---------------10\----0h3---3p0-|---------------------|

   e  eE e s sE   q   e  e E e     e  e  e  e E e   s ss ss ss s
|---------------|---------------|-------------------5\4----------|
|3--------------|---------------|5-10----------------------------|
|4-10-8----108--|-12--12-10-----|4----12-12-10------3\2---0h2----|
|--------8------|------------10-|---------------10\----0h3---3p0-|

    e e e e Q   e e   e eE e e e e e e   e e e e e e Q   e e e e  h
|-------------------|------------------|---------------|----------------|
|4------------------|------------------|---7-----------|-7--------------|
|4-/6-6-6-5\---/6-6-|-6-5----5h6-5-6-5-|-6---8-8-8-7---|---7-7-6-(6)----|
|-------------------|------8-----------|---------------|----------------|

Rest during guitar Outro





Comments


Popular Mudvayne tabs & chords
Death Blooms Bass Tabs
Do What You Do 2 Bass Tabs
Imn 2 Bass Tabs
Mercy, Severity 2 Bass Tabs
Nothing To Gein 2 Bass Tabs
Scarlet Letters Bass Tabs
Tv Radio Bass Tabs
A New Game Tabs
Nothing To Gein Tabs
World So Cold 3 Tabs


Song lyrics



↑ Back to top | Tablatures and chords are parodies/interpretations of the original songs. You may use it for private study, scholarship, research or language learning purposes only
© 2014 AZChords.com Contact us | Privacy policy | DMCA | Add/correct tabs | Request tabs | Top 50 tabs