» » »

Mudvayne, A Key To Nothing Tabs (ver.1)

Artists:  A B C D E F G H I J K L M N O P Q R S T U V W X Y Z # 

A Key To Nothing Tabs (ver.1)

Mudvayne Tabs
 Rating:
3.1/5 (7 votes)
A Key To Nothing lessons Tabs too difficult? Try these video lessons and learn fast
1
                Band - Mudvayne
Song - A Key To Nothing
Album - The End Of All Things To Come (2002)
Tuning - CGCFAD

Intro - Guitar 1, let high notes ring
|-------------------------------------------------------------------------|
|------------19----19----19----19---------19----19----19----19------------|
|-------------------------------------------------------------------------|
|---------17----17----17----17----17---17----17----17----17----17---------|
|-0-0-0-0---------------------------------------------------------0-0-0-0-|
|-0-0-0-0---------------------------------------------------------0-0-0-0-|
  . . . .                                                         . . . .

Verse - Let high notes ring...again
|----------------------------------------------------------------|
|----19----19----19----19---------19----19----19----19b----------|
|----------------------------------------------------------------|
|-17----17----17----17----17---17----17----17----17--------------|
|--------------------------------------------------------0-0-0-0-|
|--------------------------------------------------------0-0-0-0-|
                                                         . . . .

|----------------------------------------------------------------|
|----19----19----19----19---------19----19----19----19b----------|
|----------------------------------------------------------------|
|-17----17----17----17----17---17----17----17----17--------------|
|--------------------------------------------------------0-0-0-0-|
|--------------------------------------------------------0-0-0-0-|
                                                         . . . .

|----------------------------------------------------------------|
|----19----19----19----19---------19----19----19----19b----------|
|----------------------------------------------------------------|
|-17----17----17----17----17---17----17----17----17--------------|
|--------------------------------------------------------0-3-2-1-|
|--------------------------------------------------------0-3-2-1-|
                                                         . . . .

Chorus
|-------------------------------------------------|
|-------------------------------------------------|
|-------------------------------------------------|
|-------------------------------------------------|
|-0-0-0-0-3-0--0-3-0-0-3-0-0-0-0-3-0--0-3-0-3-2-1-|
|-0-0-0-0-3-0--0-3-0-0-3-0-0-0-0-3-0--0-3-0-3-2-1-|

Verse
|------------------------------------------------------------------|
|----19----19----19----19---------19----19----19----19b------------|
|------------------------------------------------------------------|
|-17----17----17----17----17---17----17----17----17-----17---------|
|----------------------------------------------------------0-0-0-0-|
|----------------------------------------------------------0-0-0-0-|
                                                           . . . .

|----------------------------------------------------------------|
|----19----19----19----19---------19----19----19----19b----------|
|----------------------------------------------------------------|
|-17----17----17----17----17---17----17----17----17--------------|
|--------------------------------------------------------0-0-0-0-|
|--------------------------------------------------------0-0-0-0-|
                                                         . . . .

|----------------------------------------------------------------|
|----19----19----19----19---------19----19----19----19b----------|
|----------------------------------------------------------------|
|-17----17----17----17----17---17----17----17----17--------------|
|--------------------------------------------------------0-3-2-1-|
|--------------------------------------------------------0-3-2-1-|
                                                         . . . .

Chorus
|-------------------------------------------------|
|-------------------------------------------------|
|-------------------------------------------------|
|-------------------------------------------------|
|-0-0-0-0-3-0--0-3-0-0-3-0-0-0-0-3-0--0-3-0-3-2-1-|
|-0-0-0-0-3-0--0-3-0-0-3-0-0-0-0-3-0--0-3-0-3-2-1-|

|---------------------------|
|---------------------------|
|----------------5--8--7--5-|
|-0-------------------------|
|-0--------------3--6--5--3-|
|-0-------------------------|

Bridge
|-----------------------------------------------------------------|
|-----------------------------------------------------------------|
|-7-------7---------------5-8-7-5-7-------7---------------5-8-7-5-|
|-----------------------------------------------------------------|
|-5-------5---------------3-6-5-3-5-------5---------------3-6-5-3-|
|---0-0-0---0-0-3-0-0-3-0-----------0-0-0---0-0-3-0-0-3-0---------|

|-----------------------------------------------------|
|-----------------------------------------------------|
|-7-------6-------6-5-8-7-5-7-------6-------6-5-8-7-5-|
|-----------------------------------------------------|
|-5-------5-------5-3-6-5-3-5-------5-------5-3-6-5-3-|
|---0-0-0---0-0-0-------------0-0-0---0-0-0-----------|

|----------------------------------------------------------------------|
|----------------------------------------------------------------------|
|--------------------------------------------------------------5-8-7-5-|
|----------------------------------------------------------------------|
|-----------3-----3----------3---3------------3-----3----------3-6-5-3-|
|-0-0-0-0-0-3-0-0-3--0-3-0-0-3-0-3--0-0-0-0-0-3-0-0-3--0-3-0-0---------|

Guitar 2
|--------------------------------------------------------|
|--------------------------------------------------------|
|-7-----------------7---------------10----------------10-|
|--------------------------------------------------------|
|-5-----------------5---------------8-----------------8--|
|--------------------------------------------------------|

|----------------------------------------------------------------------|
|----------------------------------------------------------------------|
|--------------------------------------------------------------5-8-7-5-|
|----------------------------------------------------------------------|
|-----------3-----3----------3---3------------3-----3----------3-6-5-3-|
|-0-0-0-0-0-3-0-0-3--0-3-0-0-3-0-3--0-0-0-0-0-3-0-0-3--0-3-0-0---------|

|-----------------------------------------------------------------|
|-----------------------------------------------------------------|
|-12--------8-----------------------12----------------15-------17-|
|-----------------------------------------------------------------|
|-10--------6-----------------------10----------------13-------15-|
|-----------------------------------------------------------------|

Chorus
|-------------------------------------------------|
|-------------------------------------------------|
|-------------------------------------------------|
|-------------------------------------------------|
|-0-0-0-0-3-0--0-3-0-0-3-0-0-0-0-3-0--0-3-0-3-2-1-|
|-0-0-0-0-3-0--0-3-0-0-3-0-0-0-0-3-0--0-3-0-3-2-1-|

Interlude
|-------------------------------------------------|
|-------------------------------------------------|
|-------------------------------------------------|
|-------------------------------------------------|
|-0-0-0-0-3-0--0-3-0-0-3-0-0-0-0-3-0--0-3-0-3-2-1-|
|-0-0-0-0-3-0--0-3-0-0-3-0-0-0-0-3-0--0-3-0-3-2-1-|

Guitar 2
|--------------------------------------------------------|
|--------------------------------------------------------|
|-7-----------------7---------------10----------------10-|
|--------------------------------------------------------|
|-5-----------------5---------------8-----------------8--|
|--------------------------------------------------------|

|-------------------------------------------------|
|-------------------------------------------------|
|-------------------------------------------------|
|-------------------------------------------------|
|-0-0-0-0-3-0--0-3-0-0-3-0-0-0-0-3-0--0-3-0-3-2-1-|
|-0-0-0-0-3-0--0-3-0-0-3-0-0-0-0-3-0--0-3-0-3-2-1-|

|-------------------------------------------|
|-------------------------------------------|
|-7----------7-----------12---------15---17-|
|-------------------------------------------|
|-5----------5-----------10---------13---15-|
|-------------------------------------------|

Outro
|-----------------------------------------------------|
|-----------------------------------------------------|
|---------6-------6-----------------6-------6---------|
|-----------------------------------------------------|
|-0-0-0-0-5-0-0-0-5-0-3-2-1-0-0-0-0-5-0-0-0-5-0-3-2-1-|
|-0-0-0-0---0-0-0---0-3-2-1-0-0-0-0---0-0-0---0-3-2-1-|

|-----------------------------------------|
|-----------------------------------------|
|-7-----------7-------------7-----------7-|
|-----------------------------------------|
|-5-----------5-------------5-----------5-|
|-----------------------------------------|

|-----------------------------------------------------|
|-----------------------------------------------------|
|---------6-------6-----------------6-------6---------|
|-----------------------------------------------------|
|-0-0-0-0-5-0-0-0-5-0-3-2-1-0-0-0-0-5-0-0-0-5-0-3-2-1-|
|-0-0-0-0---0-0-0---0-3-2-1-0-0-0-0---0-0-0---0-3-2-1-|

|------------------------------------------|
|------------------------------------------|
|-12----------12------------12----------12-|
|------------------------------------------|
|-10----------10------------10----------10-|
|------------------------------------------|

|-----------------------------------------------------|
|-----------------------------------------------------|
|---------6-------6-----------------6-------6---------|
|-----------------------------------------------------|
|-0-0-0-0-5-0-0-0-5-0-3-2-1-0-0-0-0-5-0-0-0-5-0-3-2-1-|
|-0-0-0-0---0-0-0---0-3-2-1-0-0-0-0---0-0-0---0-3-2-1-|

|------------------------------------------------|
|------------------------------------------------|
|-12----------12------------12----------15----17-|
|------------------------------------------------|
|-10----------10------------10----------13----15-|
|------------------------------------------------|

|-----------------------------------------------------|
|-----------------------------------------------------|
|---------6-------6-----------------6-------6---------|
|-----------------------------------------------------|
|-0-0-0-0-5-0-0-0-5-0-3-2-1-0-0-0-0-5-0-0-0-5-0-3-2-1-|
|-0-0-0-0---0-0-0---0-3-2-1-0-0-0-0---0-0-0---0-3-2-1-|

|------------------------------------------------|
|------------------------------------------------|
|-12---------15-----17------12----------15----17-|
|------------------------------------------------|
|-10---------13-----15------10----------13----15-|
|------------------------------------------------|

|-----------------------------------------------------|
|-----------------------------------------------------|
|---------6-------6-----------------6-------6---------|
|-----------------------------------------------------|
|-0-0-0-0-5-0-0-0-5-0-3-2-1-0-0-0-0-5-0-0-0-5-0-3-2-1-|
|-0-0-0-0---0-0-0---0-3-2-1-0-0-0-0---0-0-0---0-3-2-1-|

|------------------------------------------|
|------------------------------------------|
|-14---------14-------------14----------14-|
|------------------------------------------|
|-12---------12-------------12----------12-|
|------------------------------------------|

|-----------------------------------------------------|
|-----------------------------------------------------|
|---------6-------6-----------------6-------6---------|
|-----------------------------------------------------|
|-0-0-0-0-5-0-0-0-5-0-3-2-1-0-0-0-0-5-0-0-0-5-0-3-2-1-|
|-0-0-0-0---0-0-0---0-3-2-1-0-0-0-0---0-0-0---0-3-2-1-|

|------------------------------------------|
|------------------------------------------|
|-14---------14-------------14----------14-|
|------------------------------------------|
|-12---------12-------------12----------12-|
|------------------------------------------|
            
Submit corrections

comments powered by Disqus
↑ Back to top | Mudvayne Tabs for A Key To Nothing. Lyrics for acoustic guitar and electric guitar. 1 Tablatures and chords are parodies/interpretations of the original songs. You may use it for private study, scholarship, research or language learning purposes only