>
 >
Ghost In The Mirror

Ghost In The Mirror Guitar Tabs

Motionless In White - Ghost In The Mirror chords, tabs, tablatures, lyrics

Guitar lessons | Add/correct | Request | Top 50 tabs Artists:  A B C D E F G H I J K L M N O P Q R S T U V W X Y Z 0-9

Ghost In The Mirror Guitar Tabs – Motionless In White

CD, Sheet music, Poster

Do you like Ghost In The Mirror? Share with your friends now
Bass TabsChordsTabsUkulele
Artist - Motionless in White
Song - Ghost In the Mirror
Album - When Love Met Destruction
Profile - horizonaflame

So this is an amazing song by an amazing band, and before you tell me, i know this isn't 
a hundred percent correct, so dont hate, just use this one to make ur own, Still please 
rate and comment on it with any ideas.

Drop D Tuning (DADG)

Gtr. 1

Intro (there is no rest between these, its just easier to look at!)

e|-------------------------------------------------------|
B|-66666666-66666666-66666666-66666666-66666666-66666666-|
G|-77777777-77777777-77777777-77777777-77777777-77777777-|
D|-------------------------------------------------------|
A|-------------------------------------------------------|
D|-------------------------------------------------------|

e|-------------------|
B|-55555555-88888888-|
G|-77777777-77777777-|
D|-------------------|
A|-------------------|
D|-------------------|

Chorus  (play this fast the whole chorus)

e|---|
B|-6-|
G|-7-|
D|---|
A|---|
D|---|



Verse (not sure about this, so you listen and tell me if you can understand it better!)

e|---------------------------------|
B|---------------------------------|
G|---------------------------------| x4
D|-----------5-7-----------5-7-----|
A|-----5-------------5---------8~--|
D|-0-0---0-0-----0-0---0-0---------|

e|--------------------------------------------------------------------|
B|--------------------------------------------------------------------|
G|--------------------------------------------------------------------|
D|--------------------------------------------------------------------|
A|-00000000----0000--0000--00000000888888888---7777--5555--77777777-0-|
D|-00000000----0000--0000--00000000888888888---7777--5555--77777777-0-|

Chorus again

1st Breakdown

e|------------------------------------------------|
B|--------------------------------------66-----66-|
G|--------------------------------------99-----99-|
D|------------------------------------------------|
A|----8~---------7~------000x-0x-0x-00x----00x----|
D|-8~----8~---5~----5~---000x-0x-0x-00x----00x----|

e|-------------------------------------------------------|
B|---------------------------66666666-666666-----666666--|
G|---------------------------99999999-999999-----999999--|
D|-------------------------------------------------------|
A|----8~---------7~------00x-----------------00x---------|
D|-8~----8~---5~----5~---00x-----------------00x---------|

e|-----------------|
B|-----------------|
G|-----------------|
D|-----------------|
A|-----------------|
D|-000/12-14121514-|

e|-------------------------|
B|-----66666666-666666-----|
G|-----99999999-999999-----|
D|-------------------------|
A|-------------------------|
D|-00x-----------------00x-|

e|--------------------------------------------------|
B|-----666666-----66-----66-----666666--------------|
G|-----999999-----99-----99-----999999--------------|
D|--------------------------------------------------|
A|-00x--------00x----00x----00x--------0x0x0x0x0x0x-|
D|-00x--------00x----00x----00x--------0x0x0x0x0x0x-|

e|---------------------------------------------------|
B|-----666666-----66-----66-----666666---------------|
G|-----999999-----99-----99-----999999---------------|
D|---------------------------------------------------|
A|-00x--------00x----00x----00x--------00x----00x----|
D|-00x--------00x----00x----00x--------00x----00x----|

e|---------------------------------------------------------------|
B|---------------------------------------------------------------|
G|---------------------------------------------------------------|
D|---------------------------------------------------------------|
A|-000x--0-000x-000x----0-000/12----------0-000x-000x--00x--00x--|
D|-000x--0-000x-000x----0-000/12-14121514-0-000x-000x--00x--00x--|

Bridge

e|-------------------------------------------------|
B|-------------------------11-11-11-11-10-10-10-10-|
G|-10-10-10-10-10-10-10-10-10-10-10-10-10-10-10-10-|
D|-------------------------------------------------|
A|-------------------------------------------------|
D|-------------------------------------------------|

e|------------------------------------------------------------------|
B|-----------------(this-part-2-times)------------------------------|
G|------------------------------------------------------------------|
D|-8---8-8-8-8-8-8-10---10-10-10-10-10-10-000x-00x-00x-000x-00x-00x-|
A|-8---8-8-8-8-8-8-10---10-10-10-10-10-10-000x-00x-00x-000x-00x-00x-|
D|-8---8-8-8-8-8-8-10---10-10-10-10-10-10-000x-00x-00x-000x-00x-00x-|

e|-----------------------------------------|
B|-----------------------------------------|
G|-----------------------------------------|
D|-8-8-8-8-8-8-8-8-10-10-10-10-10-10-10-10-|
A|-8-8-8-8-8-8-8-8-10-10-10-10-10-10-10-10-|
D|-8-8-8-8-8-8-8-8-10-10-10-10-10-10-10-10-|

e|-------------------------------------------------|-----------------------|
B|-------------------------------------------------|-----------------------|
G|-------------------------------------------------|-----------------------|
D|-12-12-12-12-12-12-12-12-15-15-15-15-15-15-15-15-|-000-00-00---000-00-00-|
A|-12-12-12-12-12-12-12-12-15-15-15-15-15-15-15-15-|-000-00-00---000-00-00-|
D|-12-12-12-12-12-12-12-12-15-15-15-15-15-15-15-15-|-000-00-00---000-00-00-|

e|---------------------------------------------------------------|
B|---------------------------------------------------------------|
G|---------------------------------------------------------------|
D|-000-00-00---000-00-00---000-00-00---000-00-00--000--000-0-0-0-|
A|-000-00-00---000-00-00---000-00-00---000-00-00--000--000-0-0-0-|
D|-000-00-00---000-00-00---000-00-00---000-00-00--000--000-0-0-0-|

2nd Breakdown

e|----------------------------------------|
B|------------------------------------666-|
G|------------------------------------999-|
D|----------------------------------------|
A|-0000x----0000x----0000x----0000x-0-----|
D|-0000x----0000x----0000x----0000x-0-----|

e|-----------------------------------------------|
B|-----------------------------------------------|
G|-----------------------------------------------|
D|-----------------------------------------------|
A|-0000x----0000x----0000x----0000x-0x-0x-0x-12\-|
D|-0000x----0000x----0000x----0000x-0x-0x-0x-12\-|

This next part 2 times

e|----------------------------------------|
B|------------------------------------666-|
G|------------------------------------999-|
D|----------------------------------------|
A|-0000~----0000~----0000~----0000~-0-----|
D|-0000~----0000~----0000~----0000~-0-----|

-------------------end-of-guitar-one-------------------------------

Gtr. 2 (mostly the same as guitar one except for a few parts)

Intro

e|------------------------------------------|
B|------------------------------------------|
G|-2~--------2~--------2~--------5~---7~----|
D|-0~--------0~--------0---------3----5~----|
A|-0~--------0~--------0~--------3----5~----|
D|---------------------------|--------------|

Chorus (play first sections 32 times and the other two sections 16 times, also 
play this whole thing twice)

e|---|----|---|
B|---|----|---|
G|-2-|-10-|-7-|
D|-0-|-8--|-5-|
A|-0-|-8--|-5-|
D|-0-|-8--|-5-|

Verse

e|---------------------------------|
B|---------------------------------|
G|---------------------------------| x4
D|-----------5-7-----------5-7-----|
A|-----5-------------5---------8~--|
D|-0-0---0-0-----0-0---0-0---------|



e|---------------------------------------------------------------|
B|---------------------------------------------------------------|
G|---------------------------------------------------------------|
D|--------7-----7-----7-----8-7--------------7-----7-----7-----7-|
A|-10-8-7---8-7---8-7---8-7-----10-8-7---8-7---8-7---8-7---8-7---|
D|---------------------------------------------------------------|

Chorus again

1st Breakdown

e|------------------------------------------------|
B|--------------------------------------66-----66-|
G|--------------------------------------99-----99-|
D|------------------------------------------------|
A|----8~---------7~------000x-0x-0x-00x----00x----|
D|-8~----8~---5~----5~---000x-0x-0x-00x----00x----|

e|------------------------------------------------|
B|---------------------------66666666-----666666--|
G|---------------------------99999999-----999999--|
D|------------------------------------------------|
A|----8~---------7~------00x----------00x---------|
D|-8~----8~---5~----5~---00x----------00x---------|

e|-----------------|
B|-----------------|
G|-----------------|
D|-----------------|
A|-----------------|
D|-000/12-14121514-|

e|-------------------------|
B|-----66666666-666666-----|
G|-----99999999-999999-----|
D|-------------------------|
A|-------------------------|
D|-00x-----------------00x-|

e|--------------------------------------------------|
B|-----666666-----66-----66-----666666--------------|
G|-----999999-----99-----99-----999999--------------|
D|--------------------------------------------------|
A|-00x--------00x----00x----00x--------0x0x0x0x0x0x-|
D|-00x--------00x----00x----00x--------0x0x0x0x0x0x-|

e|---------------------------------------------------|
B|-----666666-----66-----66-----666666---------------|
G|-----999999-----99-----99-----999999---------------|
D|---------------------------------------------------|
A|-00x--------00x----00x----00x--------00x----00x----|
D|-00x--------00x----00x----00x--------00x----00x----|

e|---------------------------------------------------------------|
B|---------------------------------------------------------------|
G|---------------------------------------------------------------|
D|---------------------------------------------------------------|
A|-000x--0-000x-000x----0-000/12----------0-000x-000x--00x--00x--|
D|-000x--0-000x-000x----0-000/12-14121514-0-000x-000x--00x--00x--|

Chorus again

Bridge

e|-------------------------------------------------|
B|-------------------------11-11-11-11-10-10-10-10-|
G|-10-10-10-10-10-10-10-10-10-10-10-10-10-10-10-10-|
D|-------------------------------------------------|
A|-------------------------------------------------|
D|-------------------------------------------------|

e|------------------------------------------------------------------|
B|-----------------(this-part-2-times)------------------------------|
G|------------------------------------------------------------------|
D|-8---8-8-8-8-8-8-10---10-10-10-10-10-10-000x-00x-00x-000x-00x-00x-|
A|-8---8-8-8-8-8-8-10---10-10-10-10-10-10-000x-00x-00x-000x-00x-00x-|
D|-8---8-8-8-8-8-8-10---10-10-10-10-10-10-000x-00x-00x-000x-00x-00x-|

e|-----------------------------------------|
B|-----------------------------------------|
G|-----------------------------------------|
D|-8-8-8-8-8-8-8-8-10-10-10-10-10-10-10-10-|
A|-8-8-8-8-8-8-8-8-10-10-10-10-10-10-10-10-|
D|-8-8-8-8-8-8-8-8-10-10-10-10-10-10-10-10-|

e|-------------------------------------------------|-----------------------|
B|-------------------------------------------------|-----------------------|
G|-------------------------------------------------|-----------------------|
D|-12-12-12-12-12-12-12-12-15-15-15-15-15-15-15-15-|-000-00-00---000-00-00-|
A|-12-12-12-12-12-12-12-12-15-15-15-15-15-15-15-15-|-000-00-00---000-00-00-|
D|-12-12-12-12-12-12-12-12-15-15-15-15-15-15-15-15-|-000-00-00---000-00-00-|

e|---------------------------------------------------------------|
B|---------------------------------------------------------------|
G|---------------------------------------------------------------|
D|-000-00-00---000-00-00---000-00-00---000-00-00--000--000-0-0-0-|
A|-000-00-00---000-00-00---000-00-00---000-00-00--000--000-0-0-0-|
D|-000-00-00---000-00-00---000-00-00---000-00-00--000--000-0-0-0-|

2nd Breakdown

e|----------------------------------------|
B|------------------------------------666-|
G|------------------------------------999-|
D|----------------------------------------|
A|-0000x----0000x----0000x----0000x-0-----|
D|-0000x----0000x----0000x----0000x-0-----|

e|-----------------------------------------------|
B|-----------------------------------------------|
G|-----------------------------------------------|
D|-----------------------------------------------|
A|-0000x----0000x----0000x----0000x-0x-0x-0x-12\-|
D|-0000x----0000x----0000x----0000x-0x-0x-0x-12\-|

This next part 2 times

e|----------------------------------------|
B|------------------------------------666-|
G|------------------------------------999-|
D|----------------------------------------|
A|-0000~----0000~----0000~----0000~-0-----|
D|-0000~----0000~----0000~----0000~-0-----|

------------------end-of-gtr-2---------------------------------

there it is, if you have any suggestions or corrections, message me, and I'll update it 
and I'll be sure to give you the credit

-Nick





Comments


Popular Motionless In White tabs & chords
Black Damask The Fog Bass Tabs
City Lights Bass Tabs
Cobwebs Bass Tabs
Devils Night Bass Tabs
Devils Night Tabs
Immaculate Misconception Tabs
Immaculate Misconception 1 Tabs
London In Terror Tabs
To Keep From Getting Burned Tabs
Ghost In The Mirror Ukulele


Song lyrics



↑ Back to top | Tablatures and chords are parodies/interpretations of the original songs. You may use it for private study, scholarship, research or language learning purposes only
© 2014 AZChords.com Contact us | Privacy policy | DMCA | Add/correct tabs | Request tabs | Top 50 tabs