» » »

Misty Edwards, You Won't Relent Tabs (ver.3)

Artists:  A B C D E F G H I J K L M N O P Q R S T U V W X Y Z # 

You Won't Relent Tabs (ver.3)

Misty Edwards Tabs
Rating:
0/5 (0 votes)
You Won't Relent lessons Tabs too difficult? Try these video lessons and learn fast
                "I personally strum the chorus and play the tab for the rest of the song,
 but it's up to how you want to try it. Hope this helps some"

YOU WON'T RELENT


Intro:
-----------------------------------------------------------------------------|
----------4-5-4--------------------------------------------------------------|
--------6-------6-4----------------4-6---------------------------------------|
------6--------------------------7-------------------3s6-4-2-----------------|
----4--------------------------7-------------------2----------2--------------|
-----------------------------5-------------------0---------------------------|

Verse:

     You won't relent until you have it all. My heart is yours.
-----------------------------------------------------------------------------|
----------4-5-4--------------------------------------------------------------|
--------6-------6-4----------------4-6---------------------------------------|
------6--------------------------7-------------------3s6-4-2-----------------|
----4--------------------------7-------------------2----------2--------------|
-----------------------------5-------------------0---------------------------|

     You won't relent until you have it all. My heart is yours.
-----------------------------------------------------------------------------|
----------4-5-4--------------------------------------------------------------|
--------6-------6-4----------------4-6---------------------------------------|
------6--------------------------7-------------------3s6-4-2-----------------|
----4--------------------------7-------------------2----------2--------------|
-----------------------------5-------------------0---------------------------|

   I'll set you as a seal upon my heart. As a seal upon my arm.
-----------------------------------------------------------------------------|
----------4-5-4--------------------------------------------------------------|
--------6-------6-4----------------4-6---------------------------------------|
------6--------------------------7-------------------3s6-4-2-----------------|
----4--------------------------7-------------------2----------2--------------|
-----------------------------5-------------------0---------------------------|

For there is love that is as strong as death. Jealousy demanding as the
-----------------------------------------------------------------------------|
----------4-5-4--------------------------------------------------------------|
--------6-------6-4----------------4-6---------------------------------------|
------6--------------------------7-------------------3s6-4-2-----------------|
----4--------------------------7-------------------2----------2--------------|
-----------------------------5-------------------0---------------------------|

   grave. Many waters cannot quench this love.
-----------------------------------------------------------------------------|
----------4-5-4--------------------------------------------------------------|
--------6-------6-4----------------4-6---------------------------------------|
------6--------------------------7-------------------3s6-4-2-----------------|
----4--------------------------7-------------------2----------2--------------|
-----------------------------5-------------------0---------------------------|


Chorus:

C#m         A              E
Come be the fire inside of me.

            F#m           C#m
Come be the flame upon my heart.

            A              E
come be the fire inside of me.

      F#m           C#m
Until You and I are one.


Outro:
-----------------------------------------------------------------------------|
----------4-5-4--------------------------------------------------------------|
--------6-------6-4----------------4-6---------------------------------------|
------6--------------------------7-------------------3s6-4-2-----------------|
----4--------------------------7-------------------2----------2--------------|
-----------------------------5-------------------0---------------------------|
            
Submit corrections

comments powered by Disqus
↑ Back to top | Misty Edwards Tabs for You Won't Relent. Lyrics for acoustic guitar and electric guitar. Tablatures and chords are parodies/interpretations of the original songs. You may use it for private study, scholarship, research or language learning purposes only