» » »

You Won't Relent Bass tabs (ver.1)

Artists:  A B C D E F G H I J K L M N O P Q R S T U V W X Y Z # 

You Won't Relent Bass tabs (ver.1)

Misty Edwards
Rating:
0/5 (0 votes)

Hard to play? Try these video lessons and learn fast.
                G -----6-8-9-8-6-4-|
D ---6-------------|
A -4---------------|
E -----------------|

G ------------|
D -----7-9-11-|
A ---7--------|
E -5----------|

G -----------------|
D ---6---4---2-----|
A -0---0---0---0-4-|
E -----------------|

AFTER YOU LEARN ALL PARTS PUT THEM TOGETHER
THIS IS WHAT I PLAY FOR THIS SONG BECAUSE I DONT HAVE ENOUGH FRETS SO I HOPE I HELP 
BASSIST OUT:)
            
Hard to play? Try these video lessons and learn fast. | Correct




comments powered by Disqus
↑ Back to top | Tablatures and chords are parodies/interpretations of the original songs. You may use it for private study, scholarship, research or language learning purposes only