» » »

Misty Edwards, You Won't Relent Tabs (ver.1)

Artists:  A B C D E F G H I J K L M N O P Q R S T U V W X Y Z # 

You Won't Relent Tabs (ver.1)

Misty Edwards Tabs
 Rating:
4/5 (4 votes)
You Won't Relent lessons Tabs too difficult? Try these video lessons and learn fast
                
Guitar 1
e|-----------------------------------------------------------------------|
B|----------4--5--4---------------------0-H-2-0--------------------------|
G|-------6-----------6---------------2-----------------------------------|
D|----6-----------------6---------2----------------6--4--2---------------|
A|-4---------------------------0------------------------------2-S-4------|
E|----------------------------------------------0---0--0---0-------------|

Guitar 2
e|-----0-2-4-2-0-------0-2-4---------------------------------------------|
B|-2-4-----------4-2-4----------9---7---5-S--7---------------------------|
G|------------------------------9---6---6-S--6---------------------------|
D|-----------------------------------------------------------------------|
A|-----------------------------------------------------------------------|
E|-----------------------------------------------------------------------|


Chords
C#,A,E, F sharp 

Bass
G|--------------------------4--6-----------------------------------------|
D|------------------------------------6--4--2----------------------------|
A|---4-4-4-4-4-4-4-4-----------------------------------------------------|
E|-------------------5-5-5--------0-----------2--4-----------------------|


A great song I hope you liked my tab send me a message if you see any problems with it 
thanks, steaklover 
            
Submit corrections

comments powered by Disqus
↑ Back to top | Misty Edwards Tabs for You Won't Relent. Lyrics for acoustic guitar and electric guitar. Tablatures and chords are parodies/interpretations of the original songs. You may use it for private study, scholarship, research or language learning purposes only