» » »

Misty Edwards, My Soul Longs For You Tabs (ver.1)

Artists:  A B C D E F G H I J K L M N O P Q R S T U V W X Y Z # 

My Soul Longs For You Tabs (ver.1)

Misty Edwards Tabs
 Rating:
3.1/5 (7 votes)
My Soul Longs For You lessons Tabs too difficult? Try these video lessons and learn fast
                I give God all the glory
Key:Bm

Chorus:Bm,D


Main riff:
e|------------------------------------------------------------------------|
B|------------------------------------------------------------------------|
G|-------7-7-7-7-6-4-4-----7-7-7-7-6-4-4----------------------------------|
D|--4-4----------------4-4------------------------------------------------|
A|------------------------------------------------------------------------|
E|------------------------------------------------------------------------|

e|------------------------------------------------------------------------|
B|------------------------------------------------------------------------|
G|------------------------------------------------------------------------|
D|-4-4-7-7-7-7-5-4-4---4-4-7-7-7-7-5-4s2s4--------------------------------|
A|------------------------------------------------------------------------|
E|------------------------------------------------------------------------|




Chorus2:somthing like this
e|------------------------------------------------------------------------|
B|------------------------------------------------------------------------|
G|-----------7-9-------------9-11-----------------------------------------|
D|--4-4s5s7-9------4-4s5s9-11---------------------------------------------|
A|------------------------------------------------------------------------|
E|------------------------------------------------------------------------|




Solo:
e|-17-17-17----------------------------15-15-14-14-----------------------|
B|----------15-15-15-17-17-17-15-15-15-----------------------------------|
G|-----------------------------------------------------------------------|x2
D|-----------------------------------------------------------------------|
A|-----------------------------------------------------------------------|
E|-----------------------------------------------------------------------|

then do it again and end with a bend on the 14
e|-17-17-17--------------------------------------------------------------|
B|----------15-15-15-17-17-17-15-15-15-14b-------------------------------|
G|-----------------------------------------------------------------------|
D|-----------------------------------------------------------------------|
A|-----------------------------------------------------------------------|
E|-----------------------------------------------------------------------|
            
Submit corrections

comments powered by Disqus
↑ Back to top | Misty Edwards Tabs for My Soul Longs For You. Lyrics for acoustic guitar and electric guitar. Tablatures and chords are parodies/interpretations of the original songs. You may use it for private study, scholarship, research or language learning purposes only