» » »

Misty Edwards, I Will Run Tabs (ver.2)

Artists:  A B C D E F G H I J K L M N O P Q R S T U V W X Y Z # 

I Will Run Tabs (ver.2)

Misty Edwards Tabs
 Rating:
4.2/5 (5 votes)
I Will Run lessons Tabs too difficult? Try these video lessons and learn fast
                -----------------------------------------------------------------------------
                             I Will Run - Misty Edwards
-----------------------------------------------------------------------------

Tuning: Standard



Intro: Piano

e|--14------14------15------15------12------12------14------14--------------|
B|--15--15--15--15--15--15--15--15--15--15--15--15--15--15--15--15----------|
G|------16------16------16------16------16------16------16------16----------|
D|--------------------------------------------------------------------------|
A|--------------------------------------------------------------------------|
E|--------------------------------------------------------------------------|


Intro: Distorted Guitar

e|--------------------------------------------------------------------------|
B|--------------------------------------------------------------------------|
G|--4---4---4444--4-4444-4-4444-4-4444-4-444---4---4444-4-4444-4-4444-4-----|
D|--4---4---4444--4-4444-4-4444-4-4444-4-444---4---4444-4-4444-4-4444-4-----|
A|--2---2---2222--2-2222-2-2222-2-2222-2-202---2---2222-2-2222-2-2222-2-----|
E|--------------------------------------------------------------------------|



Verse 1 : Clean with Chorus  "I will run the Race set before me..."

e|--------------------------------------------------------------------------|
B|--------------------------------------------------------------------------|
G|--4------------------------------------4----------------------------------|
D|--4---------------7------------4-------4---------------7-------------4----|
A|--2-----------5------5------2----------2-----------5------5------2--------|
E|----------3-------------0----------------------3-------------0------------|



Pre-Chorus:  "I will Run, I will run, I will run..."

e|--------------------------------------------------------------------------|
B|--------------------------------------------------------------------------|
G|--444--444--444--444--444--444--444--4\--444--4\--444--4\--4444444--------|
D|--444--444--444--444--444--444--444--4\--444--4\--444--4\--4444444--------|
A|--222--222--222--222--222--222--222--2\--222--2\--222--2\--2222222--------|
E|--------------------------------------------------------------------------|



Chorus: "All I want is you, All I crave is you.."

e|--------------------------------------------------------------------------|
B|--------------------------------------------------------------------------|
G|--4---4---4444--4-4444-4-4444-4-4444-4-444---4---4444-4-4444-4-4444-4-----|
D|--4---4---4444--4-4444-4-4444-4-4444-4-444---4---4444-4-4444-4-4444-4-----|
A|--2---2---2222--2-2222-2-2222-2-2222-2-202---2---2222-2-2222-2-2222-2-----|
E|--------------------------------------------------------------------------|



  Verse
  Pre-Chorus
  Chorus
  Bridge: "My soul Pants for God and God alone..."
  Chorus
  Verse
  Pre-Chorus



Instrumental: Clean Guitar

e|--------------------------------------------------------------------------|
B|--------------------------------------------------------------------------|
G|------11-11-11-11-------11-11-11-11------12-12-12-12-----11-11-11-11------|
D|------12-12-12-12-------12-12-12-12------12-12-12-12-----12-12-12-12------|
A|--14----------------14---------------10---------------9-------------------|
E|--------------------------------------------------------------------------|



Final Pre-Chorus: Distorted Guitar

e|--------------------------------------------------------------------------|
B|--------------------------------------------------------------------------|
G|--444--4\----444--4\----444--4\----444--4\----444--4\----444--4\----------|
D|--444--4\----444--4\----444--4\----444--4\----444--4\----444--4\----------|
A|--222--2\----222--2\----222--2\----222--2\----222--2\----222--2\----------|
E|--------------------------------------------------------------------------|



Final Chorus: Distorted Guitar

e|--------------------------------------------------------------------------|
B|--------------------------------------------------------------------------|
G|--4-4444--7-7777--2-2222--9-9999----4-4444--7-7777--2-2222--9-9999--------|
D|--4-4444--7-7777--2-2222--9-9999----4-4444--7-7777--2-2222--9-9999--------|
A|--2-2222--5-5555--0-0000--7-7777----2-2222--5-5555--0-0000--7-7777--------|
E|--------------------------0-0000----------------------------0-0000--------|



| /  slide up
| \  slide down
| h  hammer-on
| p  pull-off
| ~  vibrato
| +  harmonic
| x  Mute note
===============================================================================
            
Submit corrections

comments powered by Disqus
↑ Back to top | Misty Edwards Tabs for I Will Run. Lyrics for acoustic guitar and electric guitar. Tablatures and chords are parodies/interpretations of the original songs. You may use it for private study, scholarship, research or language learning purposes only