» » »

Oh Boy Bass tabs (ver.2)

Artists:  A B C D E F G H I J K L M N O P Q R S T U V W X Y Z # 

Oh Boy Bass tabs (ver.2)

Miss Li
Rating:
0/5 (0 votes)

Hard to play? Try these video lessons and learn fast.
                Intro
Piano

Refrain
G------------------------------------------------------------| x2
D-------------------------5---5------------------------------|
A-3---3---3---3-------------5---5----------------------------|
E---3---3---3---3-5-0-5-0------------------------------------|

Verse
G------------------------------------------------------------| x3
D-----5-------3----------------------------------------------|
A-5-----5-3-----3--------------------------------------------|
E---5-------3------------------------------------------------|

G------------------------------------------------------------|
D-----5------------------------------------------------------|
A-5-----5-3---3---3---3--------------------------------------|
E---5-------3---3---3---3-5-7--------------------------------|

Refrain
G------------------------------------------------------------| x2
D-------------------------5---5------------------------------|
A-3---3---3---3-------------5---5----------------------------|
E---3---3---3---3-5-0-5-0------------------------------------|

Bridge
G------------------------------------------------------------| x2
D------------------------------------------------------------|
A-3---3---3---3----------------------------------------------|
E---3---3---3---3-5-0-5-0-5-0-5-0----------------------------|

G------------------------------------------------------------|
D----------------------5-------------------------------------|
A-3------3---------------------------------------------------|
E---------------5--------------------------------------------|

Refrain
G------------------------------------------------------------| x~
D-------------------------5---5------------------------------|
A-3---3---3---3-------------5---5----------------------------|
E---3---3---3---3-5-0-5-0------------------------------------|



				+Yugge+
            
Hard to play? Try these video lessons and learn fast. | Correct




comments powered by Disqus
↑ Back to top | Tablatures and chords are parodies/interpretations of the original songs. You may use it for private study, scholarship, research or language learning purposes only