» » »

Miss Li, Oh Boy Tabs (ver.1)

Artists:  A B C D E F G H I J K L M N O P Q R S T U V W X Y Z # 

Oh Boy Tabs (ver.1)

Miss Li Tabs
Rating:
5/5 (2 votes)
Oh Boy lessons Tabs too difficult? Try these video lessons and learn fast
                                   in ref
       C                 C                 Am                  G  
E-----------------|-----------------|-----------------|-----------------|
B----1---1--------|----1---1--------|----1---1--------|----3---3--------|
G----0---0--------|----0---0--------|----2---2--------|----0---0--------|
D------2----------|------2----------|------2----------|------0----------|
A--3--------------|--3--------------|--0--------------|-----------------|
E-----------------|-----------------|-----------------|--3--------------|
                   in vers   
     Dm                   G                 C                 F
E----1---1--------|----3---3--------|----0---0--------|----1---1--------|
B----3---3--------|----3---3--------|----1---1--------|----1---1--------|
G------2----------|------0----------|------0----------|------2----------|
D--0--------------|-----------------|-----------------|-----------------|
A-----------------|-----------------|--3--------------|-----------------|
E-----------------|--3--------------|-----------------|--1--------------|
 
ref.
C
oh boy

you make me feel like

oh boy

You make me feel like
Am
no boy
                      G
can make me feel like you

i really really want you
C
oh boy

you make me feel like

oh boy

you really turn me
Am
on boy
                         G
and I don´t know what to do

i really really want to ...

vers. 
    Dm      G
.. .be with you
C           F
like I was before
     Dm   G     C
this distance between us
                  F
makes me want you more
Dm   G
i do mean
C                                 F
you are the cutest boy I´ve ever seen
           Dm       G
and you´ve got that something
C
something that I want, something that I need, a dirty little young girls
 
dream

ref.
Oh I say..

oh boy
you make me feel like
oh boy
you make me feel like
no boy
can make me feel like you
I really really want you

oh boy
you make me feel like
oh boy
you really turn me
on boy
and I don´t know what to do
i really really want

you make me swirl
like a tiny little pearl
i will patiently wait
until you´re done
with that other girl

and I don´t care
about your so damn good excuses
cus they turn me on
yeah they turn me strong, t they turn me on, you know how to light my fuses 
            
Submit corrections

comments powered by Disqus
↑ Back to top | Miss Li Tabs for Oh Boy. Lyrics for acoustic guitar and electric guitar. Tablatures and chords are parodies/interpretations of the original songs. You may use it for private study, scholarship, research or language learning purposes only