» » »

Oh Boy Bass tabs (ver.1)

Artists:  A B C D E F G H I J K L M N O P Q R S T U V W X Y Z # 

Oh Boy Bass tabs (ver.1)

Miss Li
Rating:
0/5 (0 votes)

Hard to play? Try these video lessons and learn fast.
                Refräng
G------------------------------------------------------------| x2
D-------------------------5---5------------------------------|
A-3---3---3---3-------------5---5----------------------------|
E---3---3---3---3-5-0-5-0------------------------------------|

Vers
G------------------------------------------------------------| x3
D-----5-------3----------------------------------------------|
A-5-----5-3-----3--------------------------------------------|
E---5-------3------------------------------------------------|

G------------------------------------------------------------|
D-----5------------------------------------------------------|
A-5-----5-3---3---3---3--------------------------------------|
E---5-------3---3---3---3-5-7--------------------------------|
            
Hard to play? Try these video lessons and learn fast. | Correct




comments powered by Disqus
↑ Back to top | Tablatures and chords are parodies/interpretations of the original songs. You may use it for private study, scholarship, research or language learning purposes only